  0
SECTION
  2
HEADER
  9
$ACADVER
  1
AC1012
  9
$DWGCODEPAGE
  3
ansi_932
  9
$INSBASE
 10
0.0
 20
0.0
 30
0.0
  9
$EXTMIN
 10
0.0
 20
0.0
 30
0.0
  9
$EXTMAX
 10
1189.0
 20
841.0
 30
0.0
  9
$LIMMIN
 10
0.0
 20
0.0
  9
$LIMMAX
 10
1189.0
 20
841.0
  9
$ORTHOMODE
 70
     0
  9
$REGENMODE
 70
     1
  9
$FILLMODE
 70
     1
  9
$QTEXTMODE
 70
     0
  9
$MIRRTEXT
 70
     1
  9
$DRAGMODE
 70
     2
  9
$LTSCALE
 40
1.0
  9
$OSMODE
 70
    37
  9
$ATTMODE
 70
     1
  9
$TEXTSIZE
 40
2.5
  9
$TRACEWID
 40
1.0
  9
$TEXTSTYLE
  7
STANDARD
  9
$CLAYER
  8
0
  9
$CELTYPE
  6
BYLAYER
  9
$CECOLOR
 62
   256
  9
$CELTSCALE
 40
1.0
  9
$DELOBJ
 70
     1
  9
$DISPSILH
 70
     0
  9
$DIMSCALE
 40
1.0
  9
$DIMASZ
 40
2.5
  9
$DIMEXO
 40
0.625
  9
$DIMDLI
 40
3.75
  9
$DIMRND
 40
0.0
  9
$DIMDLE
 40
0.0
  9
$DIMEXE
 40
1.25
  9
$DIMTP
 40
0.0
  9
$DIMTM
 40
0.0
  9
$DIMTXT
 40
2.5
  9
$DIMCEN
 40
2.5
  9
$DIMTSZ
 40
0.0
  9
$DIMTOL
 70
     0
  9
$DIMLIM
 70
     0
  9
$DIMTIH
 70
     0
  9
$DIMTOH
 70
     0
  9
$DIMSE1
 70
     0
  9
$DIMSE2
 70
     0
  9
$DIMTAD
 70
     1
  9
$DIMZIN
 70
     8
  9
$DIMBLK
  1

  9
$DIMASO
 70
     1
  9
$DIMSHO
 70
     1
  9
$DIMPOST
  1

  9
$DIMAPOST
  1

  9
$DIMALT
 70
     0
  9
$DIMALTD
 70
     3
  9
$DIMALTF
 40
0.0393700787
  9
$DIMLFAC
 40
1.0
  9
$DIMTOFL
 70
     1
  9
$DIMTVP
 40
0.0
  9
$DIMTIX
 70
     0
  9
$DIMSOXD
 70
     0
  9
$DIMSAH
 70
     0
  9
$DIMBLK1
  1

  9
$DIMBLK2
  1

  9
$DIMSTYLE
  2
ISO-25
  9
$DIMCLRD
 70
     0
  9
$DIMCLRE
 70
     0
  9
$DIMCLRT
 70
     0
  9
$DIMTFAC
 40
1.0
  9
$DIMGAP
 40
0.625
  9
$DIMJUST
 70
     0
  9
$DIMSD1
 70
     0
  9
$DIMSD2
 70
     0
  9
$DIMTOLJ
 70
     0
  9
$DIMTZIN
 70
     8
  9
$DIMALTZ
 70
     0
  9
$DIMALTTZ
 70
     0
  9
$DIMFIT
 70
     3
  9
$DIMUPT
 70
     0
  9
$DIMUNIT
 70
     2
  9
$DIMDEC
 70
     2
  9
$DIMTDEC
 70
     2
  9
$DIMALTU
 70
     2
  9
$DIMALTTD
 70
     3
  9
$DIMTXSTY
  7
STANDARD
  9
$DIMAUNIT
 70
     0
  9
$LUNITS
 70
     2
  9
$LUPREC
 70
     4
  9
$SKETCHINC
 40
1.0
  9
$FILLETRAD
 40
10.0
  9
$AUNITS
 70
     0
  9
$AUPREC
 70
     0
  9
$MENU
  1
.
  9
$ELEVATION
 40
0.0
  9
$PELEVATION
 40
0.0
  9
$THICKNESS
 40
0.0
  9
$LIMCHECK
 70
     0
  9
$CHAMFERA
 40
10.0
  9
$CHAMFERB
 40
10.0
  9
$CHAMFERC
 40
20.0
  9
$CHAMFERD
 40
0.0
  9
$SKPOLY
 70
     0
  9
$TDCREATE
 40
2458472.629350394
  9
$TDUPDATE
 40
2458472.629350405
  9
$TDINDWG
 40
0.0000000116
  9
$TDUSRTIMER
 40
0.0000000116
  9
$USRTIMER
 70
     1
  9
$ANGBASE
 50
0.0
  9
$ANGDIR
 70
     0
  9
$PDMODE
 70
     0
  9
$PDSIZE
 40
0.0
  9
$PLINEWID
 40
0.0
  9
$COORDS
 70
     1
  9
$SPLFRAME
 70
     0
  9
$SPLINETYPE
 70
     6
  9
$SPLINESEGS
 70
     8
  9
$ATTDIA
 70
     0
  9
$ATTREQ
 70
     1
  9
$HANDLING
 70
     1
  9
$HANDSEED
  5
259
  9
$SURFTAB1
 70
     6
  9
$SURFTAB2
 70
     6
  9
$SURFTYPE
 70
     6
  9
$SURFU
 70
     6
  9
$SURFV
 70
     6
  9
$UCSNAME
  2

  9
$UCSORG
 10
0.0
 20
0.0
 30
0.0
  9
$UCSXDIR
 10
1.0
 20
0.0
 30
0.0
  9
$UCSYDIR
 10
0.0
 20
1.0
 30
0.0
  9
$PUCSNAME
  2

  9
$PUCSORG
 10
0.0
 20
0.0
 30
0.0
  9
$PUCSXDIR
 10
1.0
 20
0.0
 30
0.0
  9
$PUCSYDIR
 10
0.0
 20
1.0
 30
0.0
  9
$USERI1
 70
     0
  9
$USERI2
 70
     0
  9
$USERI3
 70
     0
  9
$USERI4
 70
     0
  9
$USERI5
 70
     0
  9
$USERR1
 40
0.0
  9
$USERR2
 40
0.0
  9
$USERR3
 40
0.0
  9
$USERR4
 40
0.0
  9
$USERR5
 40
0.0
  9
$WORLDVIEW
 70
     1
  9
$SHADEDGE
 70
     3
  9
$SHADEDIF
 70
    70
  9
$TILEMODE
 70
     1
  9
$MAXACTVP
 70
    64
  9
$PINSBASE
 10
0.0
 20
0.0
 30
0.0
  9
$PLIMCHECK
 70
     0
  9
$PEXTMIN
 10
0.0
 20
0.0
 30
0.0
  9
$PEXTMAX
 10
1189.0
 20
841.0
 30
0.0
  9
$PLIMMIN
 10
0.0
 20
0.0
  9
$PLIMMAX
 10
1189.0
 20
841.0
  9
$UNITMODE
 70
     0
  9
$VISRETAIN
 70
     1
  9
$PLINEGEN
 70
     0
  9
$PSLTSCALE
 70
     1
  9
$TREEDEPTH
 70
  3020
  9
$PICKSTYLE
 70
     1
  9
$CMLSTYLE
  2
STANDARD
  9
$CMLJUST
 70
     0
  9
$CMLSCALE
 40
20.0
  9
$SAVEIMAGES
 70
     1
  0
ENDSEC
  0
SECTION
  2
CLASSES
  0
CLASS
  1
ACDBDICTIONARYWDFLT
  2
AcDbDictionaryWithDefault
  3
ObjectDBX Classes
 90
    32768
280
     0
281
     0
  0
CLASS
  1
VISUALSTYLE
  2
AcDbVisualStyle
  3
ObjectDBX Classes
 90
     4095
280
     0
281
     0
  0
CLASS
  1
SCALE
  2
AcDbScale
  3
ObjectDBX Classes
 90
     1153
280
     0
281
     0
  0
CLASS
  1
DICTIONARYVAR
  2
AcDbDictionaryVar
  3
ObjectDBX Classes
 90
        0
280
     0
281
     0
  0
CLASS
  1
XRECORD
  2
AcDbXrecord
  3
AutoCAD 2000
 90
    32768
280
     0
281
     0
  0
CLASS
  1
LWPOLYLINE
  2
AcDbPolyline
  3
AutoCAD 2000
 90
    32768
280
     0
281
     1
  0
CLASS
  1
HATCH
  2
AcDbHatch
  3
AutoCAD 2000
 90
    32768
280
     0
281
     1
  0
CLASS
  1
ACDBPLACEHOLDER
  2
AcDbPlaceHolder
  3
ObjectDBX Classes
 90
        0
280
     0
281
     0
  0
CLASS
  1
LAYOUT
  2
AcDbLayout
  3
ObjectDBX Classes
 90
        0
280
     0
281
     0
  0
ENDSEC
  0
SECTION
  2
TABLES
  0
TABLE
  2
VPORT
  5
8
330
0
100
AcDbSymbolTable
 70
     1
  0
VPORT
  5
29
330
8
100
AcDbSymbolTableRecord
100
AcDbViewportTableRecord
  2
*ACTIVE
 70
     0
 10
0.0
 20
0.0
 11
1.0
 21
1.0
 12
344.1869158879
 22
148.5
 13
0.0
 23
0.0
 14
10.0
 24
10.0
 15
10.0
 25
10.0
 16
0.0
 26
0.0
 36
1.0
 17
0.0
 27
0.0
 37
0.0
 40
297.0
 41
1.9729729729
 42
50.0
 43
0.0
 44
0.0
 50
0.0
 51
0.0
 71
     0
 72
   100
 73
     1
 74
     3
 75
     0
 76
     0
 77
     0
 78
     0
  0
ENDTAB
  0
TABLE
  2
LTYPE
  5
5
330
0
100
AcDbSymbolTable
 70
     3
  0
LTYPE
  5
14
330
5
100
AcDbSymbolTableRecord
100
AcDbLinetypeTableRecord
  2
BYBLOCK
 70
     0
  3

 72
    65
 73
     0
 40
0.0
  0
LTYPE
  5
15
330
5
100
AcDbSymbolTableRecord
100
AcDbLinetypeTableRecord
  2
BYLAYER
 70
     0
  3

 72
    65
 73
     0
 40
0.0
  0
LTYPE
  5
16
330
5
100
AcDbSymbolTableRecord
100
AcDbLinetypeTableRecord
  2
CONTINUOUS
 70
     0
  3
Solid line
 72
    65
 73
     0
 40
0.0
  0
LTYPE
  5
10D
330
5
100
AcDbSymbolTableRecord
100
AcDbLinetypeTableRecord
  2
CENTER2
 70
     0
  3
Center (.5x) ___ _ ___ _ ___ _ ___ _ ___ _ ___
 72
    65
 73
     4
 40
28.575
 49
19.05
 74
     4
 75
     0
340
0
 46
0.0
 50
0.0
 44
0.0
 45
0.0
 49
-3.175
 74
     4
 75
     0
340
0
 46
0.0
 50
0.0
 44
0.0
 45
0.0
 49
3.175
 74
     4
 75
     0
340
0
 46
0.0
 50
0.0
 44
0.0
 45
0.0
 49
-3.175
 74
     4
 75
     0
340
0
 46
0.0
 50
0.0
 44
0.0
 45
0.0
  0
LTYPE
  5
13F
330
5
100
AcDbSymbolTableRecord
100
AcDbLinetypeTableRecord
  2
HIDDEN2
 70
     0
  3
Hidden (.5x) _ _ _ _ _ _ _ _ _ _ _ _ _ _ _ _ _ 
 72
    65
 73
     2
 40
4.7625
 49
3.175
 74
     4
 75
     0
340
0
 46
0.0
 50
0.0
 44
0.0
 45
0.0
 49
-1.5875
 74
     4
 75
     0
340
0
 46
0.0
 50
0.0
 44
0.0
 45
0.0
  0
ENDTAB
  0
TABLE
  2
LAYER
  5
2
330
0
100
AcDbSymbolTable
 70
    10
  0
LAYER
  5
10
330
2
100
AcDbSymbolTableRecord
100
AcDbLayerTableRecord
  2
0
 70
     0
 62
     7
  6
CONTINUOUS
  0
LAYER
  5
3B
330
2
100
AcDbSymbolTableRecord
100
AcDbLayerTableRecord
  2
DEFAULT
 70
     0
 62
     7
  6
CONTINUOUS
  0
LAYER
  5
3E
330
2
100
AcDbSymbolTableRecord
100
AcDbLayerTableRecord
  2
PIPEFRAME_SIDEWA
 70
     0
 62
     7
  6
CONTINUOUS
  0
LAYER
  5
4F
330
2
100
AcDbSymbolTableRecord
100
AcDbLayerTableRecord
  2
RUBBERLEG_DESKTO
 70
     0
 62
     7
  6
CONTINUOUS
  0
LAYER
  5
68
330
2
100
AcDbSymbolTableRecord
100
AcDbLayerTableRecord
  2
STAY_BRACKET_DES
 70
     0
 62
     7
  6
CONTINUOUS
  0
LAYER
  5
A4
330
2
100
AcDbSymbolTableRecord
100
AcDbLayerTableRecord
  2
PIPEFRAM_BOTTOM_
 70
     0
 62
     7
  6
CONTINUOUS
  0
LAYER
  5
D9
330
2
100
AcDbSymbolTableRecord
100
AcDbLayerTableRecord
  2
BRACKET_DESKTOP_
 70
     0
 62
     7
  6
CONTINUOUS
  0
LAYER
  5
10C
330
2
100
AcDbSymbolTableRecord
100
AcDbLayerTableRecord
  2
DV1_デフォルト
 70
     0
 62
     7
  6
CONTINUOUS
  0
LAYER
  5
1A6
330
2
100
AcDbSymbolTableRecord
100
AcDbLayerTableRecord
  2
NAMEDECAL_DESKTO
 70
     0
 62
     7
  6
CONTINUOUS
  0
LAYER
  5
1AC
330
2
100
AcDbSymbolTableRecord
100
AcDbLayerTableRecord
  2
DV2_デフォルト
 70
     0
 62
     7
  6
CONTINUOUS
  0
ENDTAB
  0
TABLE
  2
STYLE
  5
3
330
0
100
AcDbSymbolTable
 70
     2
  0
STYLE
  5
11
330
3
100
AcDbSymbolTableRecord
100
AcDbTextStyleTableRecord
  2
STANDARD
 70
     0
 40
0.0
 41
1.0
 50
0.0
 71
     0
 42
2.5
  3
txt
  4

  0
STYLE
  5
1DC
330
3
100
AcDbSymbolTableRecord
100
AcDbTextStyleTableRecord
  2
SEACAD_SEANSI_TTF
 70
     0
 40
0.0
 41
1.0
 50
0.0
 71
     0
 42
0.2
  3
seansi.ttf
  4

  0
ENDTAB
  0
TABLE
  2
VIEW
  5
6
330
0
100
AcDbSymbolTable
 70
     0
  0
ENDTAB
  0
TABLE
  2
UCS
  5
7
330
0
100
AcDbSymbolTable
 70
     0
  0
ENDTAB
  0
TABLE
  2
APPID
  5
9
330
0
100
AcDbSymbolTable
 70
     1
  0
APPID
  5
12
330
9
100
AcDbSymbolTableRecord
100
AcDbRegAppTableRecord
  2
ACAD
 70
     0
  0
ENDTAB
  0
TABLE
  2
DIMSTYLE
  5
A
330
0
100
AcDbSymbolTable
 70
     1
  0
DIMSTYLE
105
27
330
A
100
AcDbSymbolTableRecord
100
AcDbDimStyleTableRecord
  2
ISO-25
 70
     0
  3

  4

  5

  6

  7

 40
1.0
 41
2.5
 42
0.625
 43
3.75
 44
1.25
 45
0.0
 46
0.0
 47
0.0
 48
0.0
140
2.5
141
2.5
142
0.0
143
0.0393700787
144
1.0
145
0.0
146
1.0
147
0.625
 71
     0
 72
     0
 73
     0
 74
     0
 75
     0
 76
     0
 77
     1
 78
     8
170
     0
171
     3
172
     1
173
     0
174
     0
175
     0
176
     0
177
     0
178
     0
270
     2
271
     2
272
     2
273
     2
274
     3
340
11
275
     0
280
     0
281
     0
282
     0
283
     0
284
     8
285
     0
286
     0
287
     3
288
     0
  0
ENDTAB
  0
TABLE
  2
BLOCK_RECORD
  5
1
330
0
100
AcDbSymbolTable
 70
    10
  0
BLOCK_RECORD
  5
1F
330
1
100
AcDbSymbolTableRecord
100
AcDbBlockTableRecord
  2
*MODEL_SPACE
  0
BLOCK_RECORD
  5
1B
330
1
100
AcDbSymbolTableRecord
100
AcDbBlockTableRecord
  2
*PAPER_SPACE
  0
BLOCK_RECORD
  5
3C
330
1
100
AcDbSymbolTableRecord
100
AcDbBlockTableRecord
  2
SE
  0
BLOCK_RECORD
  5
11C
330
1
100
AcDbSymbolTableRecord
100
AcDbBlockTableRecord
  2
SE1
  0
BLOCK_RECORD
  5
1B3
330
1
100
AcDbSymbolTableRecord
100
AcDbBlockTableRecord
  2
GDIMGGROUP
  0
BLOCK_RECORD
  5
1E0
330
1
100
AcDbSymbolTableRecord
100
AcDbBlockTableRecord
  2
GDIMGGROUP1
  0
BLOCK_RECORD
  5
1EA
330
1
100
AcDbSymbolTableRecord
100
AcDbBlockTableRecord
  2
GDIMGGROUP2
  0
BLOCK_RECORD
  5
1F4
330
1
100
AcDbSymbolTableRecord
100
AcDbBlockTableRecord
  2
GDIMGGROUP3
  0
BLOCK_RECORD
  5
1FD
330
1
100
AcDbSymbolTableRecord
100
AcDbBlockTableRecord
  2
GDIMGGROUP4
  0
BLOCK_RECORD
  5
207
330
1
100
AcDbSymbolTableRecord
100
AcDbBlockTableRecord
  2
GDIMGGROUP5
  0
BLOCK_RECORD
  5
211
330
1
100
AcDbSymbolTableRecord
100
AcDbBlockTableRecord
  2
GDIMGGROUP6
  0
ENDTAB
  0
ENDSEC
  0
SECTION
  2
BLOCKS
  0
BLOCK
  5
20
330
1F
100
AcDbEntity
  8
0
100
AcDbBlockBegin
  2
*MODEL_SPACE
 70
     0
 10
0.0
 20
0.0
 30
0.0
  3
*MODEL_SPACE
  1

  0
ENDBLK
  5
21
330
1F
100
AcDbEntity
  8
0
100
AcDbBlockEnd
  0
BLOCK
  5
1C
330
1B
100
AcDbEntity
 67
     1
  8
0
100
AcDbBlockBegin
  2
*PAPER_SPACE
 70
     0
 10
0.0
 20
0.0
 30
0.0
  3
*PAPER_SPACE
  1

  0
ENDBLK
  5
1D
330
1B
100
AcDbEntity
 67
     1
  8
0
100
AcDbBlockEnd
  0
BLOCK
  5
11A
330
3C
100
AcDbEntity
  8
0
100
AcDbBlockBegin
  2
SE
 70
     0
 10
0.0
 20
0.0
 30
0.0
  3
SE
  1

  0
ARC
  5
3F
330
3C
100
AcDbEntity
  8
PIPEFRAME_SIDEWA
  6
CONTINUOUS
 62
     7
100
AcDbCircle
 10
537.4869320659
 20
212.5586190373
 30
0.0
 40
7.937500000000044
100
AcDbArc
 50
38.4657896949
 51
90.0
  0
LINE
  5
40
330
3C
100
AcDbEntity
  8
PIPEFRAME_SIDEWA
  6
CONTINUOUS
 62
     7
100
AcDbLine
 10
543.7018335133
 20
217.4961190373
 30
0.0
 11
545.4244320659
 21
217.4961190373
 31
0.0
  0
ARC
  5
41
330
3C
100
AcDbEntity
  8
PIPEFRAME_SIDEWA
  6
CONTINUOUS
 62
     7
100
AcDbCircle
 10
537.4869320659
 20
212.5586190373
 30
0.0
 40
7.937500000000044
100
AcDbArc
 50
90.0
 51
105.2801687651
  0
LINE
  5
42
330
3C
100
AcDbEntity
  8
PIPEFRAME_SIDEWA
  6
CONTINUOUS
 62
     7
100
AcDbLine
 10
545.4244320659
 20
357.0534651721
 30
0.0
 11
545.4244320659
 21
362.1795944291
 31
0.0
  0
LINE
  5
43
330
3C
100
AcDbEntity
  8
PIPEFRAME_SIDEWA
  6
CONTINUOUS
 62
     7
100
AcDbLine
 10
529.5494320659
 20
362.1795944291
 30
0.0
 11
529.5494320659
 21
357.0534651721
 31
0.0
  0
ARC
  5
44
330
3C
100
AcDbEntity
  8
PIPEFRAME_SIDEWA
  6
CONTINUOUS
 62
     7
100
AcDbCircle
 10
537.4869320659
 20
635.5073122166
 30
0.0
 40
7.937499999999986
100
AcDbArc
 50
0.0
 51
180.0
  0
LINE
  5
45
330
3C
100
AcDbEntity
  8
PIPEFRAME_SIDEWA
  6
CONTINUOUS
 62
     7
100
AcDbLine
 10
545.4244320659
 20
607.4620143716
 30
0.0
 11
545.4244320659
 21
635.5073122166
 31
0.0
  0
LINE
  5
46
330
3C
100
AcDbEntity
  8
PIPEFRAME_SIDEWA
  6
CONTINUOUS
 62
     7
100
AcDbLine
 10
529.5494320659
 20
635.5073122166
 30
0.0
 11
529.5494320659
 21
607.4620143716
 31
0.0
  0
LINE
  5
47
330
3C
100
AcDbEntity
  8
PIPEFRAME_SIDEWA
  6
CONTINUOUS
 62
     7
100
AcDbLine
 10
529.5494320659
 20
607.4620143716
 30
0.0
 11
529.5494320659
 21
601.9778022992
 31
0.0
  0
LINE
  5
48
330
3C
100
AcDbEntity
  8
PIPEFRAME_SIDEWA
  6
CONTINUOUS
 62
     7
100
AcDbLine
 10
529.5494320659
 20
577.5629261092
 30
0.0
 11
529.5494320659
 21
574.682783129
 31
0.0
  0
LINE
  5
49
330
3C
100
AcDbEntity
  8
PIPEFRAME_SIDEWA
  6
CONTINUOUS
 62
     7
100
AcDbLine
 10
529.5494320659
 20
571.2873976744
 30
0.0
 11
529.5494320659
 21
403.4152541332
 31
0.0
  0
LINE
  5
4A
330
3C
100
AcDbEntity
  8
PIPEFRAME_SIDEWA
  6
CONTINUOUS
 62
     7
100
AcDbLine
 10
529.5494320659
 20
400.8363932793
 30
0.0
 11
529.5494320659
 21
397.9562502991
 31
0.0
  0
LINE
  5
4B
330
3C
100
AcDbEntity
  8
PIPEFRAME_SIDEWA
  6
CONTINUOUS
 62
     7
100
AcDbLine
 10
529.5494320659
 20
372.7248495084
 30
0.0
 11
529.5494320659
 21
362.1795944291
 31
0.0
  0
LINE
  5
4C
330
3C
100
AcDbEntity
  8
PIPEFRAME_SIDEWA
  6
CONTINUOUS
 62
     7
100
AcDbLine
 10
545.4244320659
 20
362.1795944291
 30
0.0
 11
545.4244320659
 21
607.4620143716
 31
0.0
  0
LINE
  5
4D
330
3C
100
AcDbEntity
  8
PIPEFRAME_SIDEWA
  6
CONTINUOUS
 62
     7
100
AcDbLine
 10
545.4244320659
 20
217.4961190373
 30
0.0
 11
545.4244320659
 21
357.0534651721
 31
0.0
  0
LINE
  5
4E
330
3C
100
AcDbEntity
  8
PIPEFRAME_SIDEWA
  6
CONTINUOUS
 62
     7
100
AcDbLine
 10
529.5494320659
 20
357.0534651721
 30
0.0
 11
529.5494320659
 21
220.2008798085
 31
0.0
  0
ARC
  5
50
330
3C
100
AcDbEntity
  8
RUBBERLEG_DESKTO
  6
CONTINUOUS
 62
     7
100
AcDbCircle
 10
193.3624055462
 20
211.6580935898
 30
0.0
 40
7.213096514352276
100
AcDbArc
 50
266.9781963077
 51
269.2233116952
  0
ARC
  5
51
330
3C
100
AcDbEntity
  8
RUBBERLEG_DESKTO
  6
CONTINUOUS
 62
     7
100
AcDbCircle
 10
193.3624055462
 20
211.6580935898
 30
0.0
 40
7.213096514361121
100
AcDbArc
 50
258.5003700181
 51
276.3902974604
  0
ARC
  5
52
330
3C
100
AcDbEntity
  8
RUBBERLEG_DESKTO
  6
CONTINUOUS
 62
     7
100
AcDbCircle
 10
193.3619320659
 20
212.2633798086
 30
0.0
 40
7.9375000000107
100
AcDbArc
 50
224.7249131549
 51
229.72610706
  0
ARC
  5
53
330
3C
100
AcDbEntity
  8
RUBBERLEG_DESKTO
  6
CONTINUOUS
 62
     7
100
AcDbCircle
 10
193.3619320659
 20
212.2633798085
 30
0.0
 40
7.93750000000004
100
AcDbArc
 50
229.72610706
 51
284.2437635318
  0
LINE
  5
54
330
3C
100
AcDbEntity
  8
RUBBERLEG_DESKTO
  6
CONTINUOUS
 62
     7
100
AcDbLine
 10
186.1119320659
 20
205.8258798085
 30
0.0
 11
186.1119320659
 21
202.3258798085
 31
0.0
  0
LINE
  5
55
330
3C
100
AcDbEntity
  8
RUBBERLEG_DESKTO
  6
CONTINUOUS
 62
     7
100
AcDbLine
 10
200.6119320659
 20
204.3375956338
 30
0.0
 11
200.6119320659
 21
202.3258798085
 31
0.0
  0
LINE
  5
56
330
3C
100
AcDbEntity
  8
RUBBERLEG_DESKTO
  6
CONTINUOUS
 62
     7
100
AcDbLine
 10
187.1119320659
 20
206.8258798085
 30
0.0
 11
187.3671426618
 21
206.8258798085
 31
0.0
  0
LINE
  5
57
330
3C
100
AcDbEntity
  8
RUBBERLEG_DESKTO
  6
CONTINUOUS
 62
     7
100
AcDbLine
 10
198.6119320659
 20
200.3258798085
 30
0.0
 11
188.1119320659
 21
200.3258798085
 31
0.0
  0
ARC
  5
58
330
3C
100
AcDbEntity
  8
RUBBERLEG_DESKTO
  6
CONTINUOUS
 62
     7
100
AcDbCircle
 10
188.1119320659
 20
202.3258798085
 30
0.0
 40
2.000000000000002
100
AcDbArc
 50
180.0
 51
270.0
  0
ARC
  5
59
330
3C
100
AcDbEntity
  8
RUBBERLEG_DESKTO
  6
CONTINUOUS
 62
     7
100
AcDbCircle
 10
198.6119320659
 20
202.3258798085
 30
0.0
 40
2.000000000000002
100
AcDbArc
 50
270.0
 51
0.0
  0
ARC
  5
5A
330
3C
100
AcDbEntity
  8
RUBBERLEG_DESKTO
  6
CONTINUOUS
 62
     7
100
AcDbCircle
 10
187.1119320659
 20
205.8258798085
 30
0.0
 40
1.000000000000001
100
AcDbArc
 50
90.0
 51
180.0
  0
ARC
  5
5B
330
3C
100
AcDbEntity
  8
RUBBERLEG_DESKTO
  6
CONTINUOUS
 62
     7
100
AcDbCircle
 10
187.3671426618
 20
206.3258798085
 30
0.0
 40
0.5000000000000004
100
AcDbArc
 50
44.7249131549
 51
90.0
  0
ARC
  5
5C
330
3C
100
AcDbEntity
  8
RUBBERLEG_DESKTO
  6
CONTINUOUS
 62
     7
100
AcDbCircle
 10
537.4874055462
 20
211.6580935898
 30
0.0
 40
7.213096514352276
100
AcDbArc
 50
266.9781963077
 51
271.1251928511
  0
ARC
  5
5D
330
3C
100
AcDbEntity
  8
RUBBERLEG_DESKTO
  6
CONTINUOUS
 62
     7
100
AcDbCircle
 10
537.4874055462
 20
211.6580935898
 30
0.0
 40
7.213096514361121
100
AcDbArc
 50
262.4028826442
 51
276.3902974604
  0
ARC
  5
5E
330
3C
100
AcDbEntity
  8
RUBBERLEG_DESKTO
  6
CONTINUOUS
 62
     7
100
AcDbCircle
 10
537.4869320659
 20
212.2633798085
 30
0.0
 40
7.93750000000004
100
AcDbArc
 50
255.7616507023
 51
310.27389294
  0
ARC
  5
5F
330
3C
100
AcDbEntity
  8
RUBBERLEG_DESKTO
  6
CONTINUOUS
 62
     7
100
AcDbCircle
 10
537.4869320659
 20
212.2633798086
 30
0.0
 40
7.937500000008827
100
AcDbArc
 50
310.27389294
 51
315.2750868451
  0
LINE
  5
60
330
3C
100
AcDbEntity
  8
RUBBERLEG_DESKTO
  6
CONTINUOUS
 62
     7
100
AcDbLine
 10
543.4817214701
 20
206.8258798085
 30
0.0
 11
543.7369320659
 21
206.8258798085
 31
0.0
  0
LINE
  5
61
330
3C
100
AcDbEntity
  8
RUBBERLEG_DESKTO
  6
CONTINUOUS
 62
     7
100
AcDbLine
 10
530.2369320659
 20
204.3376334799
 30
0.0
 11
530.2369320659
 21
202.3258798085
 31
0.0
  0
LINE
  5
62
330
3C
100
AcDbEntity
  8
RUBBERLEG_DESKTO
  6
CONTINUOUS
 62
     7
100
AcDbLine
 10
544.7369320659
 20
205.8258798085
 30
0.0
 11
544.7369320659
 21
202.3258798085
 31
0.0
  0
LINE
  5
63
330
3C
100
AcDbEntity
  8
RUBBERLEG_DESKTO
  6
CONTINUOUS
 62
     7
100
AcDbLine
 10
542.7369320659
 20
200.3258798085
 30
0.0
 11
532.2369320659
 21
200.3258798085
 31
0.0
  0
ARC
  5
64
330
3C
100
AcDbEntity
  8
RUBBERLEG_DESKTO
  6
CONTINUOUS
 62
     7
100
AcDbCircle
 10
532.2369320659
 20
202.3258798085
 30
0.0
 40
2.000000000000002
100
AcDbArc
 50
180.0
 51
270.0
  0
ARC
  5
65
330
3C
100
AcDbEntity
  8
RUBBERLEG_DESKTO
  6
CONTINUOUS
 62
     7
100
AcDbCircle
 10
542.7369320659
 20
202.3258798085
 30
0.0
 40
2.000000000000002
100
AcDbArc
 50
270.0
 51
0.0
  0
ARC
  5
66
330
3C
100
AcDbEntity
  8
RUBBERLEG_DESKTO
  6
CONTINUOUS
 62
     7
100
AcDbCircle
 10
543.7369320659
 20
205.8258798085
 30
0.0
 40
1.000000000000001
100
AcDbArc
 50
0.0
 51
90.0
  0
ARC
  5
67
330
3C
100
AcDbEntity
  8
RUBBERLEG_DESKTO
  6
CONTINUOUS
 62
     7
100
AcDbCircle
 10
543.4817214701
 20
206.3258798085
 30
0.0
 40
0.4999999999999806
100
AcDbArc
 50
90.0
 51
135.2750868451
  0
ELLIPSE
  5
69
330
3C
100
AcDbEntity
  8
STAY_BRACKET_DES
  6
CONTINUOUS
 62
     7
100
AcDbEllipse
 10
265.4244320659
 20
388.5270618585
 30
0.0
 11
4.000000000000045
 21
-1.249000902703301E-13
 31
0.0
210
0.0
220
0.0
230
1.0
 40
0.9925461516
 41
0.0000000000000028
 42
3.141592653589825
  0
ELLIPSE
  5
6A
330
3C
100
AcDbEntity
  8
STAY_BRACKET_DES
  6
CONTINUOUS
 62
     7
100
AcDbEllipse
 10
265.4244320659
 20
388.4295663838
 30
0.0
 11
-4.000000000000018
 21
-1.249000902703301E-13
 31
0.0
210
0.0
220
0.0
230
1.0
 40
0.9925461516
 41
3.141592653589793
 42
6.283185307179586
  0
ELLIPSE
  5
6B
330
3C
100
AcDbEntity
  8
STAY_BRACKET_DES
  6
CONTINUOUS
 62
     7
100
AcDbEllipse
 10
465.4244320659
 20
388.5270618585
 30
0.0
 11
3.99999999999999
 21
-5.551115123125783E-14
 31
0.0
210
0.0
220
0.0
230
1.0
 40
0.9925461516
 41
0.000000000000014
 42
3.141592653589807
  0
ELLIPSE
  5
6C
330
3C
100
AcDbEntity
  8
STAY_BRACKET_DES
  6
CONTINUOUS
 62
     7
100
AcDbEllipse
 10
465.4244320659
 20
388.4295663838
 30
0.0
 11
-4.000000000000004
 21
-1.040834085586084E-12
 31
0.0
210
0.0
220
0.0
230
1.0
 40
0.9925461516
 41
3.141592653589531
 42
6.283185307179586
  0
LINE
  5
6D
330
3C
100
AcDbEntity
  8
STAY_BRACKET_DES
  6
CONTINUOUS
 62
     7
100
AcDbLine
 10
532.9244320659
 20
397.9562502991
 30
0.0
 11
532.9244320659
 21
373.6388695839
 31
0.0
  0
LINE
  5
6E
330
3C
100
AcDbEntity
  8
STAY_BRACKET_DES
  6
CONTINUOUS
 62
     7
100
AcDbLine
 10
532.9244320659
 20
373.6388695839
 30
0.0
 11
532.9244320659
 21
373.5164141134
 31
0.0
  0
LINE
  5
6F
330
3C
100
AcDbEntity
  8
STAY_BRACKET_DES
  6
CONTINUOUS
 62
     7
100
AcDbLine
 10
197.9244320659
 20
397.9562502991
 30
0.0
 11
197.9244320659
 21
373.6388695839
 31
0.0
  0
LINE
  5
70
330
3C
100
AcDbEntity
  8
STAY_BRACKET_DES
  6
CONTINUOUS
 62
     7
100
AcDbLine
 10
197.9244320659
 20
373.5164141134
 30
0.0
 11
197.9244320659
 21
373.6388695839
 31
0.0
  0
ELLIPSE
  5
71
330
3C
100
AcDbEntity
  8
STAY_BRACKET_DES
  6
CONTINUOUS
 62
     7
100
AcDbEllipse
 10
537.4869320659
 20
372.7248495084
 30
0.0
 11
7.937499999998848
 21
0.0
 31
0.0
210
0.0
220
0.0
230
1.0
 40
0.1218693434
 41
2.183159891900406
 42
3.141592653589793
  0
ELLIPSE
  5
72
330
3C
100
AcDbEntity
  8
STAY_BRACKET_DES
  6
CONTINUOUS
 62
     7
100
AcDbEllipse
 10
193.3619320659
 20
372.7248495084
 30
0.0
 11
-7.937499999999986
 21
0.0
 31
0.0
210
0.0
220
0.0
230
1.0
 40
0.1218693434
 41
3.141592653589793
 42
4.100025415279298
  0
LINE
  5
73
330
3C
100
AcDbEntity
  8
STAY_BRACKET_DES
  6
CONTINUOUS
 62
     7
100
AcDbLine
 10
529.5494320659
 20
371.8108294329
 30
0.0
 11
528.9244320659
 21
371.8108294329
 31
0.0
  0
LINE
  5
74
330
3C
100
AcDbEntity
  8
STAY_BRACKET_DES
  6
CONTINUOUS
 62
     7
100
AcDbLine
 10
201.9244320659
 20
371.8108294329
 30
0.0
 11
201.2994320659
 21
371.8108294329
 31
0.0
  0
LINE
  5
75
330
3C
100
AcDbEntity
  8
STAY_BRACKET_DES
  6
CONTINUOUS
 62
     7
100
AcDbLine
 10
532.9244320659
 20
403.4152541332
 30
0.0
 11
197.9244320659
 21
403.4152541332
 31
0.0
  0
LINE
  5
76
330
3C
100
AcDbEntity
  8
STAY_BRACKET_DES
  6
CONTINUOUS
 62
     7
100
AcDbLine
 10
529.4244320659
 20
397.9562502991
 30
0.0
 11
532.9244320659
 21
397.9562502991
 31
0.0
  0
ELLIPSE
  5
77
330
3C
100
AcDbEntity
  8
STAY_BRACKET_DES
  6
CONTINUOUS
 62
     7
100
AcDbEllipse
 10
529.4244320659
 20
399.4450695266
 30
0.0
 11
1.500000000000001
 21
4.163336342344337E-14
 31
0.0
210
0.0
220
0.0
230
1.0
 40
0.9925461516
 41
1.570796326794869
 42
4.712388980384662
  0
LINE
  5
78
330
3C
100
AcDbEntity
  8
STAY_BRACKET_DES
  6
CONTINUOUS
 62
     7
100
AcDbLine
 10
532.9244320659
 20
400.9338887541
 30
0.0
 11
529.4244320659
 21
400.9338887541
 31
0.0
  0
LINE
  5
79
330
3C
100
AcDbEntity
  8
STAY_BRACKET_DES
  6
CONTINUOUS
 62
     7
100
AcDbLine
 10
532.9244320659
 20
403.4152541332
 30
0.0
 11
532.9244320659
 21
400.9338887541
 31
0.0
  0
LINE
  5
7A
330
3C
100
AcDbEntity
  8
STAY_BRACKET_DES
  6
CONTINUOUS
 62
     7
100
AcDbLine
 10
197.9244320659
 20
403.4152541332
 30
0.0
 11
197.9244320659
 21
400.9338887541
 31
0.0
  0
LINE
  5
7B
330
3C
100
AcDbEntity
  8
STAY_BRACKET_DES
  6
CONTINUOUS
 62
     7
100
AcDbLine
 10
201.4244320659
 20
400.9338887541
 30
0.0
 11
197.9244320659
 21
400.9338887541
 31
0.0
  0
ELLIPSE
  5
7C
330
3C
100
AcDbEntity
  8
STAY_BRACKET_DES
  6
CONTINUOUS
 62
     7
100
AcDbEllipse
 10
201.4244320659
 20
399.4450695266
 30
0.0
 11
-1.500000000000001
 21
-4.163336342344337E-14
 31
0.0
210
0.0
220
0.0
230
1.0
 40
0.9925461516
 41
1.570796326794869
 42
4.712388980384662
  0
LINE
  5
7D
330
3C
100
AcDbEntity
  8
STAY_BRACKET_DES
  6
CONTINUOUS
 62
     7
100
AcDbLine
 10
197.9244320659
 20
397.9562502991
 30
0.0
 11
201.4244320659
 21
397.9562502991
 31
0.0
  0
LINE
  5
7E
330
3C
100
AcDbEntity
  8
STAY_BRACKET_DES
  6
CONTINUOUS
 62
     7
100
AcDbLine
 10
532.9244320659
 20
373.6388695839
 30
0.0
 11
197.9244320659
 21
373.6388695839
 31
0.0
  0
ELLIPSE
  5
7F
330
3C
100
AcDbEntity
  8
STAY_BRACKET_DES
  6
CONTINUOUS
 62
     7
100
AcDbEllipse
 10
265.4244320659
 20
388.5270618585
 30
0.0
 11
-4.000000000000018
 21
1.249000902703301E-13
 31
0.0
210
0.0
220
0.0
230
1.0
 40
0.9925461516
 41
0.0
 42
3.141592653589793
  0
ELLIPSE
  5
80
330
3C
100
AcDbEntity
  8
STAY_BRACKET_DES
  6
CONTINUOUS
 62
     7
100
AcDbEllipse
 10
465.4244320659
 20
388.5270618585
 30
0.0
 11
-3.99999999999999
 21
5.551115123125783E-14
 31
0.0
210
0.0
220
0.0
230
1.0
 40
0.9925461516
 41
0.000000000000014
 42
3.141592653589807
  0
ELLIPSE
  5
81
330
3C
100
AcDbEntity
  8
STAY_BRACKET_DES
  6
CONTINUOUS
 62
     7
100
AcDbEllipse
 10
529.4244320659
 20
399.3475740519
 30
0.0
 11
1.500000000000001
 21
2.775557561562891E-14
 31
0.0
210
0.0
220
0.0
230
1.0
 40
0.9925461516
 41
1.570796326794878
 42
3.108844249900004
  0
ELLIPSE
  5
82
330
3C
100
AcDbEntity
  8
STAY_BRACKET_DES
  6
CONTINUOUS
 62
     7
100
AcDbEllipse
 10
201.4244320659
 20
399.3475740519
 30
0.0
 11
-1.500000000000001
 21
9.575673587391975E-13
 31
0.0
210
0.0
220
0.0
230
1.0
 40
0.9925461516
 41
3.17434105452563
 42
4.712388980385323
  0
LINE
  5
83
330
3C
100
AcDbEntity
  8
STAY_BRACKET_DES
  6
CONTINUOUS
 62
     7
100
AcDbLine
 10
197.9244320659
 20
400.8363932793
 30
0.0
 11
201.4244320659
 21
400.8363932793
 31
0.0
  0
LINE
  5
84
330
3C
100
AcDbEntity
  8
STAY_BRACKET_DES
  6
CONTINUOUS
 62
     7
100
AcDbLine
 10
529.4244320659
 20
400.8363932793
 30
0.0
 11
532.9244320659
 21
400.8363932793
 31
0.0
  0
LINE
  5
85
330
3C
100
AcDbEntity
  8
STAY_BRACKET_DES
  6
CONTINUOUS
 62
     7
100
AcDbLine
 10
197.9244320659
 20
400.8363932793
 30
0.0
 11
197.9244320659
 21
400.9338887541
 31
0.0
  0
LINE
  5
86
330
3C
100
AcDbEntity
  8
STAY_BRACKET_DES
  6
CONTINUOUS
 62
     7
100
AcDbLine
 10
532.9244320659
 20
400.9338887541
 30
0.0
 11
532.9244320659
 21
400.8363932793
 31
0.0
  0
ELLIPSE
  5
87
330
3C
100
AcDbEntity
  8
STAY_BRACKET_DES
  6
CONTINUOUS
 62
     7
100
AcDbEllipse
 10
465.4244320659
 20
587.0896100246
 30
0.0
 11
-4.000000000000018
 21
9.992007221626409E-13
 31
0.0
210
0.0
220
0.0
230
1.0
 40
0.9925461516
 41
0.0
 42
3.141592653589793
  0
ELLIPSE
  5
88
330
3C
100
AcDbEntity
  8
STAY_BRACKET_DES
  6
CONTINUOUS
 62
     7
100
AcDbEllipse
 10
265.4244320659
 20
587.0896100246
 30
0.0
 11
-4.000000000000045
 21
-8.326672684688674E-13
 31
0.0
210
0.0
220
0.0
230
1.0
 40
0.9925461516
 41
0.0000000000000194
 42
3.141592653589584
  0
LINE
  5
89
330
3C
100
AcDbEntity
  8
STAY_BRACKET_DES
  6
CONTINUOUS
 62
     7
100
AcDbLine
 10
197.9244320659
 20
577.5629261092
 30
0.0
 11
197.9244320659
 21
577.660421584
 31
0.0
  0
LINE
  5
8A
330
3C
100
AcDbEntity
  8
STAY_BRACKET_DES
  6
CONTINUOUS
 62
     7
100
AcDbLine
 10
197.9244320659
 20
577.660421584
 30
0.0
 11
197.9244320659
 21
601.9778022992
 31
0.0
  0
LINE
  5
8B
330
3C
100
AcDbEntity
  8
STAY_BRACKET_DES
  6
CONTINUOUS
 62
     7
100
AcDbLine
 10
532.9244320659
 20
577.660421584
 30
0.0
 11
532.9244320659
 21
601.9778022992
 31
0.0
  0
LINE
  5
8C
330
3C
100
AcDbEntity
  8
STAY_BRACKET_DES
  6
CONTINUOUS
 62
     7
100
AcDbLine
 10
532.9244320659
 20
577.660421584
 30
0.0
 11
532.9244320659
 21
577.5629261092
 31
0.0
  0
LINE
  5
8D
330
3C
100
AcDbEntity
  8
STAY_BRACKET_DES
  6
CONTINUOUS
 62
     7
100
AcDbLine
 10
201.2994320659
 20
570.3733775989
 30
0.0
 11
529.5494320659
 21
570.3733775989
 31
0.0
  0
ELLIPSE
  5
8E
330
3C
100
AcDbEntity
  8
STAY_BRACKET_DES
  6
CONTINUOUS
 62
     7
100
AcDbEllipse
 10
537.4869320659
 20
571.2873976744
 30
0.0
 11
7.937500000000014
 21
-5.551115123125783E-14
 31
0.0
210
0.0
220
0.0
230
1.0
 40
0.1218693434
 41
2.183159891900286
 42
3.14159265358985
  0
LINE
  5
8F
330
3C
100
AcDbEntity
  8
STAY_BRACKET_DES
  6
CONTINUOUS
 62
     7
100
AcDbLine
 10
532.9244320659
 20
572.0789622794
 30
0.0
 11
532.9244320659
 21
572.2014177499
 31
0.0
  0
LINE
  5
90
330
3C
100
AcDbEntity
  8
STAY_BRACKET_DES
  6
CONTINUOUS
 62
     7
100
AcDbLine
 10
197.9244320659
 20
572.2014177499
 30
0.0
 11
532.9244320659
 21
572.2014177499
 31
0.0
  0
LINE
  5
91
330
3C
100
AcDbEntity
  8
STAY_BRACKET_DES
  6
CONTINUOUS
 62
     7
100
AcDbLine
 10
197.9244320659
 20
572.2014177499
 30
0.0
 11
197.9244320659
 21
572.0789622794
 31
0.0
  0
ELLIPSE
  5
92
330
3C
100
AcDbEntity
  8
STAY_BRACKET_DES
  6
CONTINUOUS
 62
     7
100
AcDbEllipse
 10
193.3619320659
 20
571.2873976744
 30
0.0
 11
7.937499999999903
 21
-5.551115123125783E-14
 31
0.0
210
0.0
220
0.0
230
1.0
 40
0.1218693434
 41
0.0000000000000574
 42
0.9584327616893848
  0
LINE
  5
93
330
3C
100
AcDbEntity
  8
STAY_BRACKET_DES
  6
CONTINUOUS
 62
     7
100
AcDbLine
 10
201.4244320659
 20
577.660421584
 30
0.0
 11
197.9244320659
 21
577.660421584
 31
0.0
  0
ELLIPSE
  5
94
330
3C
100
AcDbEntity
  8
STAY_BRACKET_DES
  6
CONTINUOUS
 62
     7
100
AcDbEllipse
 10
201.4244320659
 20
576.1716023565
 30
0.0
 11
-1.499999999999974
 21
0.0
 31
0.0
210
0.0
220
0.0
230
1.0
 40
0.9925461516
 41
1.570796326794897
 42
4.71238898038469
  0
LINE
  5
95
330
3C
100
AcDbEntity
  8
STAY_BRACKET_DES
  6
CONTINUOUS
 62
     7
100
AcDbLine
 10
197.9244320659
 20
574.682783129
 30
0.0
 11
201.4244320659
 21
574.682783129
 31
0.0
  0
LINE
  5
96
330
3C
100
AcDbEntity
  8
STAY_BRACKET_DES
  6
CONTINUOUS
 62
     7
100
AcDbLine
 10
197.9244320659
 20
572.2014177499
 30
0.0
 11
197.9244320659
 21
574.682783129
 31
0.0
  0
LINE
  5
97
330
3C
100
AcDbEntity
  8
STAY_BRACKET_DES
  6
CONTINUOUS
 62
     7
100
AcDbLine
 10
532.9244320659
 20
572.2014177499
 30
0.0
 11
532.9244320659
 21
574.682783129
 31
0.0
  0
LINE
  5
98
330
3C
100
AcDbEntity
  8
STAY_BRACKET_DES
  6
CONTINUOUS
 62
     7
100
AcDbLine
 10
529.4244320659
 20
574.682783129
 30
0.0
 11
532.9244320659
 21
574.682783129
 31
0.0
  0
ELLIPSE
  5
99
330
3C
100
AcDbEntity
  8
STAY_BRACKET_DES
  6
CONTINUOUS
 62
     7
100
AcDbEllipse
 10
529.4244320659
 20
576.1716023565
 30
0.0
 11
1.500000000000029
 21
-1.110223024625157E-13
 31
0.0
210
0.0
220
0.0
230
1.0
 40
0.9925461516
 41
1.57079632679497
 42
4.712388980384763
  0
LINE
  5
9A
330
3C
100
AcDbEntity
  8
STAY_BRACKET_DES
  6
CONTINUOUS
 62
     7
100
AcDbLine
 10
532.9244320659
 20
577.660421584
 30
0.0
 11
529.4244320659
 21
577.660421584
 31
0.0
  0
LINE
  5
9B
330
3C
100
AcDbEntity
  8
STAY_BRACKET_DES
  6
CONTINUOUS
 62
     7
100
AcDbLine
 10
197.9244320659
 20
601.9778022992
 30
0.0
 11
532.9244320659
 21
601.9778022992
 31
0.0
  0
ELLIPSE
  5
9C
330
3C
100
AcDbEntity
  8
STAY_BRACKET_DES
  6
CONTINUOUS
 62
     7
100
AcDbEllipse
 10
465.4244320659
 20
587.0896100246
 30
0.0
 11
4.000000000000004
 21
-1.110223024625157E-13
 31
0.0
210
0.0
220
0.0
230
1.0
 40
0.9925461516
 41
0.0
 42
3.141592653589793
  0
ELLIPSE
  5
9D
330
3C
100
AcDbEntity
  8
STAY_BRACKET_DES
  6
CONTINUOUS
 62
     7
100
AcDbEllipse
 10
265.4244320659
 20
587.0896100246
 30
0.0
 11
4.000000000000004
 21
-1.110223024625157E-13
 31
0.0
210
0.0
220
0.0
230
1.0
 40
0.9925461516
 41
0.0
 42
3.141592653589793
  0
ELLIPSE
  5
9E
330
3C
100
AcDbEntity
  8
STAY_BRACKET_DES
  6
CONTINUOUS
 62
     7
100
AcDbEllipse
 10
201.4244320659
 20
576.0741068818
 30
0.0
 11
-1.499999999999974
 21
0.0
 31
0.0
210
0.0
220
0.0
230
1.0
 40
0.9925461516
 41
3.1743410498625
 42
4.71238898038469
  0
LINE
  5
9F
330
3C
100
AcDbEntity
  8
STAY_BRACKET_DES
  6
CONTINUOUS
 62
     7
100
AcDbLine
 10
197.9244320659
 20
577.5629261092
 30
0.0
 11
201.4244320659
 21
577.5629261092
 31
0.0
  0
LINE
  5
A0
330
3C
100
AcDbEntity
  8
STAY_BRACKET_DES
  6
CONTINUOUS
 62
     7
100
AcDbLine
 10
529.4244320659
 20
577.5629261092
 30
0.0
 11
532.9244320659
 21
577.5629261092
 31
0.0
  0
ELLIPSE
  5
A1
330
3C
100
AcDbEntity
  8
STAY_BRACKET_DES
  6
CONTINUOUS
 62
     7
100
AcDbEllipse
 10
529.4244320659
 20
576.0741068818
 30
0.0
 11
1.499999999999974
 21
0.0
 31
0.0
210
0.0
220
0.0
230
1.0
 40
0.9925461516
 41
1.570796326794897
 42
3.108844253088015
  0
ELLIPSE
  5
A2
330
3C
100
AcDbEntity
  8
STAY_BRACKET_DES
  6
CONTINUOUS
 62
     7
100
AcDbEllipse
 10
465.4244320659
 20
586.9921145498
 30
0.0
 11
-3.999999999999976
 21
2.275957200481571E-12
 31
0.0
210
0.0
220
0.0
230
1.0
 40
0.9925461516
 41
3.141592653590366
 42
6.283185307179586
  0
ELLIPSE
  5
A3
330
3C
100
AcDbEntity
  8
STAY_BRACKET_DES
  6
CONTINUOUS
 62
     7
100
AcDbEllipse
 10
265.4244320659
 20
586.9921145498
 30
0.0
 11
-4.000000000000045
 21
8.326672684688674E-13
 31
0.0
210
0.0
220
0.0
230
1.0
 40
0.9925461516
 41
3.141592653589974
 42
6.283185307179567
  0
ARC
  5
A5
330
3C
100
AcDbEntity
  8
PIPEFRAM_BOTTOM_
  6
CONTINUOUS
 62
     7
100
AcDbCircle
 10
193.3619320659
 20
212.2633798085
 30
0.0
 40
7.9375
100
AcDbArc
 50
90.0
 51
270.0
  0
SPLINE
  5
A6
330
3C
100
AcDbEntity
  8
PIPEFRAM_BOTTOM_
  6
CONTINUOUS
 62
     7
100
AcDbSpline
210
0.0
220
0.0
230
1.0
 70
     8
 71
     3
 72
    16
 73
    12
 74
     0
 42
0.0000000013288672
 43
0.0000000001
 40
0.0
 40
0.0
 40
0.0
 40
0.0
 40
0.037744577414695
 40
0.0626309099964196
 40
0.1249791458010708
 40
0.1875958611896588
 40
0.2498117879829919
 40
0.3742449212289181
 40
0.4367813907726891
 40
0.4995063686201009
 40
0.5113925248709699
 40
0.5113925248709699
 40
0.5113925248709699
 40
0.5113925248709699
 10
199.2162092417835
 20
204.75131775799
 30
0.0
 10
199.2207289173068
 20
204.7208364576038
 30
0.0
 10
199.228228574484
 20
204.6702577596338
 30
0.0
 10
199.3006683942739
 20
204.5715673152738
 30
0.0
 10
199.4571652598011
 20
204.4638718231909
 30
0.0
 10
199.7820452935797
 20
204.3653406485684
 30
0.0
 10
200.3684834867488
 20
204.3019265380088
 30
0.0
 10
201.1658245230505
 20
204.3645157936429
 30
0.0
 10
202.0438751075665
 20
204.5310625633091
 30
0.0
 10
202.5409042949094
 20
204.646035705148
 30
0.0
 10
202.8101287246132
 20
204.7108352165409
 30
0.0
 10
202.8529724379654
 20
204.7211862116548
 30
0.0
  0
SPLINE
  5
A7
330
3C
100
AcDbEntity
  8
PIPEFRAM_BOTTOM_
  6
CONTINUOUS
 62
     7
100
AcDbSpline
210
0.0
220
0.0
230
1.0
 70
     8
 71
     3
 72
    21
 73
    17
 74
     0
 42
0.0000000012122957
 43
0.0000000001
 40
0.2215120548022093
 40
0.2215120548022093
 40
0.2215120548022093
 40
0.2215120548022093
 40
0.2492289868628258
 40
0.3118100205658606
 40
0.374307565847827
 40
0.4370569743996733
 40
0.4995671140021563
 40
0.5621347291485534
 40
0.6247393664601673
 40
0.687043056190055
 40
0.7498677113240164
 40
0.8122858073749699
 40
0.8749248893096947
 40
0.9373104291733241
 40
0.9642795179724949
 40
1.0
 40
1.0
 40
1.0
 40
1.0
 10
205.4002146985644
 20
204.3272807299577
 30
0.0
 10
205.3340347578789
 20
204.325556989374
 30
0.0
 10
205.1072785602209
 20
204.3264254015433
 30
0.0
 10
204.6674187589541
 20
204.365109741703
 30
0.0
 10
204.0549249147508
 20
204.4635818833375
 30
0.0
 10
203.3975098251327
 20
204.5984843445213
 30
0.0
 10
202.7181018761663
 20
204.7512150707531
 30
0.0
 10
202.0387087948351
 20
204.9020203276175
 30
0.0
 10
201.3808803792655
 20
205.0307138597511
 30
0.0
 10
200.7670503961862
 20
205.1183630357637
 30
0.0
 10
200.2257137041554
 20
205.149607207476
 30
0.0
 10
199.7822846954896
 20
205.1184710317312
 30
0.0
 10
199.4571467581754
 20
205.0310528891141
 30
0.0
 10
199.2984269302069
 20
204.9268819758654
 30
0.0
 10
199.2274160660178
 20
204.8303982987869
 30
0.0
 10
199.2202770494112
 20
204.7800220920934
 30
0.0
 10
199.2162092417835
 20
204.75131775799
 30
0.0
  0
ARC
  5
A8
330
3C
100
AcDbEntity
  8
PIPEFRAM_BOTTOM_
  6
CONTINUOUS
 62
     7
100
AcDbCircle
 10
537.4869320659
 20
212.2633798085
 30
0.0
 40
7.9375
100
AcDbArc
 50
270.0
 51
0.0
  0
ARC
  5
A9
330
3C
100
AcDbEntity
  8
PIPEFRAM_BOTTOM_
  6
CONTINUOUS
 62
     7
100
AcDbCircle
 10
537.4869320659
 20
212.2633798085
 30
0.0
 40
7.9375
100
AcDbArc
 50
0.0
 51
90.0
  0
SPLINE
  5
AA
330
3C
100
AcDbEntity
  8
PIPEFRAM_BOTTOM_
  6
CONTINUOUS
 62
     7
100
AcDbSpline
210
0.0
220
0.0
230
1.0
 70
     8
 71
     3
 72
    20
 73
    16
 74
     0
 42
0.0000000012101163
 43
0.0000000001
 40
0.2253941804129579
 40
0.2253941804129579
 40
0.2253941804129579
 40
0.2253941804129579
 40
0.2503699222248956
 40
0.312856941139764
 40
0.3754881923588894
 40
0.4378748184584189
 40
0.5005384466856054
 40
0.5629851502405012
 40
0.6254231671488218
 40
0.7495258777077763
 40
0.8210576900972117
 40
0.8746387205707739
 40
0.9372283375531624
 40
0.968528069673736
 40
1.0
 40
1.0
 40
1.0
 40
1.0
 10
525.471787946469
 20
204.3263352363189
 30
0.0
 10
525.5319619423587
 20
204.325370445275
 30
0.0
 10
525.7524752359552
 20
204.3276318453476
 30
0.0
 10
526.1852645443845
 20
204.365471499534
 30
0.0
 10
526.7969936556138
 20
204.4642133453538
 30
0.0
 10
527.4542828447044
 20
204.5991087789771
 30
0.0
 10
528.1324817638279
 20
204.7516416742238
 30
0.0
 10
528.8116129563134
 20
204.9022093266024
 30
0.0
 10
529.6838976239793
 20
205.0734733328295
 30
0.0
 10
530.5055479102506
 20
205.1634842110279
 30
0.0
 10
531.0836903425447
 20
205.1154918520754
 30
0.0
 10
531.4003239541472
 20
205.0253178529302
 30
0.0
 10
531.5546301892498
 20
204.9240996104706
 30
0.0
 10
531.6230847073181
 20
204.8272939834663
 30
0.0
 10
531.6294590004012
 20
204.7766894400806
 30
0.0
 10
531.6326548900745
 20
204.7513177579943
 30
0.0
  0
SPLINE
  5
AB
330
3C
100
AcDbEntity
  8
PIPEFRAM_BOTTOM_
  6
CONTINUOUS
 62
     7
100
AcDbSpline
210
0.0
220
0.0
230
1.0
 70
     8
 71
     3
 72
    17
 73
    13
 74
     0
 42
0.0000000013298962
 43
0.0000000001
 40
0.0
 40
0.0
 40
0.0
 40
0.0
 40
0.0312278823044974
 40
0.0623784423340891
 40
0.1249968510412287
 40
0.1872361133858123
 40
0.2497483764820083
 40
0.3122673559823163
 40
0.3746519043785791
 40
0.4373394216497571
 40
0.4998847100930973
 40
0.5122799995670642
 40
0.5122799995670642
 40
0.5122799995670642
 40
0.5122799995670642
 10
531.6326548900745
 20
204.7513177579943
 30
0.0
 10
531.6294917055726
 20
204.725993873792
 30
0.0
 10
531.6231731688204
 20
204.6754088089777
 30
0.0
 10
531.5550999754761
 20
204.5765288679998
 30
0.0
 10
531.3921064513811
 20
204.464051507395
 30
0.0
 10
531.0672062150666
 20
204.3652670223839
 30
0.0
 10
530.6250769422294
 20
204.3180476854712
 30
0.0
 10
530.0825360958293
 20
204.3317371211901
 30
0.0
 10
529.4659375380241
 20
204.4061232620701
 30
0.0
 10
528.8046186228426
 20
204.5310152383178
 30
0.0
 10
528.305998718319
 20
204.6464900318029
 30
0.0
 10
528.0351679017467
 20
204.7116973188457
 30
0.0
 10
527.9904148809667
 20
204.7225127546142
 30
0.0
  0
LINE
  5
AC
330
3C
100
AcDbEntity
  8
PIPEFRAM_BOTTOM_
  6
CONTINUOUS
 62
     7
100
AcDbLine
 10
185.4244320659
 20
217.4961190373
 30
0.0
 11
185.4244320659
 21
212.2633798085
 31
0.0
  0
LINE
  5
AD
330
3C
100
AcDbEntity
  8
PIPEFRAM_BOTTOM_
  6
CONTINUOUS
 62
     7
100
AcDbLine
 10
545.4244320659
 20
212.2633798085
 30
0.0
 11
545.4244320659
 21
217.4961190373
 31
0.0
  0
LINE
  5
AE
330
3C
100
AcDbEntity
  8
PIPEFRAM_BOTTOM_
  6
CONTINUOUS
 62
     7
100
AcDbLine
 10
225.2994320659
 20
220.2008798085
 30
0.0
 11
193.3619320659
 21
220.2008798085
 31
0.0
  0
LINE
  5
AF
330
3C
100
AcDbEntity
  8
PIPEFRAM_BOTTOM_
  6
CONTINUOUS
 62
     7
100
AcDbLine
 10
205.3110636492
 20
204.3258798085
 30
0.0
 11
224.9218305708
 21
204.3258798085
 31
0.0
  0
LINE
  5
B0
330
3C
100
AcDbEntity
  8
PIPEFRAM_BOTTOM_
  6
CONTINUOUS
 62
     7
100
AcDbLine
 10
193.3619320659
 20
204.3258798085
 30
0.0
 11
200.3875164248
 21
204.3258798085
 31
0.0
  0
LINE
  5
B1
330
3C
100
AcDbEntity
  8
PIPEFRAM_BOTTOM_
  6
CONTINUOUS
 62
     7
100
AcDbLine
 10
530.459091921
 20
204.3258798085
 30
0.0
 11
537.4869320659
 21
204.3258798085
 31
0.0
  0
LINE
  5
B2
330
3C
100
AcDbEntity
  8
PIPEFRAM_BOTTOM_
  6
CONTINUOUS
 62
     7
100
AcDbLine
 10
506.1023186582
 20
204.3258798085
 30
0.0
 11
525.5334809934
 21
204.3258798085
 31
0.0
  0
LINE
  5
B3
330
3C
100
AcDbEntity
  8
PIPEFRAM_BOTTOM_
  6
CONTINUOUS
 62
     7
100
AcDbLine
 10
537.4869320659
 20
220.2008798085
 30
0.0
 11
505.5494320659
 21
220.2008798085
 31
0.0
  0
LINE
  5
B4
330
3C
100
AcDbEntity
  8
PIPEFRAM_BOTTOM_
  6
CONTINUOUS
 62
     7
100
AcDbLine
 10
264.0962016643
 20
204.3258798085
 30
0.0
 11
466.7525713706
 21
204.3258798085
 31
0.0
  0
LINE
  5
B5
330
3C
100
AcDbEntity
  8
PIPEFRAM_BOTTOM_
  6
CONTINUOUS
 62
     7
100
AcDbLine
 10
505.5494320659
 20
220.2008798085
 30
0.0
 11
225.2994320659
 21
220.2008798085
 31
0.0
  0
ARC
  5
B6
330
3C
100
AcDbEntity
  8
PIPEFRAME_SIDEWA
  6
CONTINUOUS
 62
     7
100
AcDbCircle
 10
193.3619320659
 20
212.5586190373
 30
0.0
 40
7.937500000000044
100
AcDbArc
 50
75.1747113735
 51
90.0
  0
LINE
  5
B7
330
3C
100
AcDbEntity
  8
PIPEFRAME_SIDEWA
  6
CONTINUOUS
 62
     7
100
AcDbLine
 10
187.1470306186
 20
217.4961190373
 30
0.0
 11
185.4244320659
 21
217.4961190373
 31
0.0
  0
ARC
  5
B8
330
3C
100
AcDbEntity
  8
PIPEFRAME_SIDEWA
  6
CONTINUOUS
 62
     7
100
AcDbCircle
 10
193.3619320659
 20
212.5586190373
 30
0.0
 40
7.937500000000044
100
AcDbArc
 50
90.0
 51
141.5342103051
  0
LINE
  5
B9
330
3C
100
AcDbEntity
  8
PIPEFRAME_SIDEWA
  6
CONTINUOUS
 62
     7
100
AcDbLine
 10
201.2994320659
 20
357.0534651721
 30
0.0
 11
201.2994320659
 21
362.1795944291
 31
0.0
  0
LINE
  5
BA
330
3C
100
AcDbEntity
  8
PIPEFRAME_SIDEWA
  6
CONTINUOUS
 62
     7
100
AcDbLine
 10
185.4244320659
 20
362.1795944291
 30
0.0
 11
185.4244320659
 21
357.0534651721
 31
0.0
  0
ARC
  5
BB
330
3C
100
AcDbEntity
  8
PIPEFRAME_SIDEWA
  6
CONTINUOUS
 62
     7
100
AcDbCircle
 10
193.3619320659
 20
635.5073122166
 30
0.0
 40
7.937499999999986
100
AcDbArc
 50
0.0
 51
180.0
  0
LINE
  5
BC
330
3C
100
AcDbEntity
  8
PIPEFRAME_SIDEWA
  6
CONTINUOUS
 62
     7
100
AcDbLine
 10
201.2994320659
 20
607.4620143716
 30
0.0
 11
201.2994320659
 21
635.5073122166
 31
0.0
  0
LINE
  5
BD
330
3C
100
AcDbEntity
  8
PIPEFRAME_SIDEWA
  6
CONTINUOUS
 62
     7
100
AcDbLine
 10
185.4244320659
 20
635.5073122166
 30
0.0
 11
185.4244320659
 21
607.4620143716
 31
0.0
  0
LINE
  5
BE
330
3C
100
AcDbEntity
  8
PIPEFRAME_SIDEWA
  6
CONTINUOUS
 62
     7
100
AcDbLine
 10
185.4244320659
 20
607.4620143716
 30
0.0
 11
185.4244320659
 21
362.1795944291
 31
0.0
  0
LINE
  5
BF
330
3C
100
AcDbEntity
  8
PIPEFRAME_SIDEWA
  6
CONTINUOUS
 62
     7
100
AcDbLine
 10
201.2994320659
 20
362.1795944291
 30
0.0
 11
201.2994320659
 21
372.7248495084
 31
0.0
  0
LINE
  5
C0
330
3C
100
AcDbEntity
  8
PIPEFRAME_SIDEWA
  6
CONTINUOUS
 62
     7
100
AcDbLine
 10
201.2994320659
 20
397.9562502991
 30
0.0
 11
201.2994320659
 21
400.8363932793
 31
0.0
  0
LINE
  5
C1
330
3C
100
AcDbEntity
  8
PIPEFRAME_SIDEWA
  6
CONTINUOUS
 62
     7
100
AcDbLine
 10
201.2994320659
 20
403.4152541332
 30
0.0
 11
201.2994320659
 21
571.2873976744
 31
0.0
  0
LINE
  5
C2
330
3C
100
AcDbEntity
  8
PIPEFRAME_SIDEWA
  6
CONTINUOUS
 62
     7
100
AcDbLine
 10
201.2994320659
 20
574.682783129
 30
0.0
 11
201.2994320659
 21
577.5629261092
 31
0.0
  0
LINE
  5
C3
330
3C
100
AcDbEntity
  8
PIPEFRAME_SIDEWA
  6
CONTINUOUS
 62
     7
100
AcDbLine
 10
201.2994320659
 20
601.9778022992
 30
0.0
 11
201.2994320659
 21
607.4620143716
 31
0.0
  0
LINE
  5
C4
330
3C
100
AcDbEntity
  8
PIPEFRAME_SIDEWA
  6
CONTINUOUS
 62
     7
100
AcDbLine
 10
201.2994320659
 20
220.2008798085
 30
0.0
 11
201.2994320659
 21
357.0534651721
 31
0.0
  0
LINE
  5
C5
330
3C
100
AcDbEntity
  8
PIPEFRAME_SIDEWA
  6
CONTINUOUS
 62
     7
100
AcDbLine
 10
185.4244320659
 20
357.0534651721
 30
0.0
 11
185.4244320659
 21
217.4961190373
 31
0.0
  0
LINE
  5
C6
330
3C
100
AcDbEntity
  8
RUBBERLEG_DESKTO
  6
CONTINUOUS
 62
     7
100
AcDbLine
 10
499.1744320659
 20
206.8258798085
 30
0.0
 11
500.9421990189
 21
206.8258798085
 31
0.0
  0
LINE
  5
C7
330
3C
100
AcDbEntity
  8
RUBBERLEG_DESKTO
  6
CONTINUOUS
 62
     7
100
AcDbLine
 10
471.906665113
 20
206.8258798085
 30
0.0
 11
473.6744320659
 21
206.8258798085
 31
0.0
  0
LINE
  5
C8
330
3C
100
AcDbEntity
  8
RUBBERLEG_DESKTO
  6
CONTINUOUS
 62
     7
100
AcDbLine
 10
473.6744320659
 20
206.8258798085
 30
0.0
 11
499.1744320659
 21
206.8258798085
 31
0.0
  0
LINE
  5
C9
330
3C
100
AcDbEntity
  8
RUBBERLEG_DESKTO
  6
CONTINUOUS
 62
     7
100
AcDbLine
 10
499.1744320659
 20
200.3258798085
 30
0.0
 11
473.6744320659
 21
200.3258798085
 31
0.0
  0
LINE
  5
CA
330
3C
100
AcDbEntity
  8
RUBBERLEG_DESKTO
  6
CONTINUOUS
 62
     7
100
AcDbLine
 10
473.6744320659
 20
200.3258798085
 30
0.0
 11
468.4244320659
 21
200.3258798085
 31
0.0
  0
LINE
  5
CB
330
3C
100
AcDbEntity
  8
RUBBERLEG_DESKTO
  6
CONTINUOUS
 62
     7
100
AcDbLine
 10
499.1744320659
 20
200.3258798085
 30
0.0
 11
504.4244320659
 21
200.3258798085
 31
0.0
  0
ARC
  5
CC
330
3C
100
AcDbEntity
  8
RUBBERLEG_DESKTO
  6
CONTINUOUS
 62
     7
100
AcDbCircle
 10
501.0125791769
 20
203.3688519098
 30
0.0
 40
3.457744244375579
100
AcDbArc
 50
84.890327149
 51
91.1662992472
  0
ARC
  5
CD
330
3C
100
AcDbEntity
  8
RUBBERLEG_DESKTO
  6
CONTINUOUS
 62
     7
100
AcDbCircle
 10
471.8308261991
 20
203.3825167126
 30
0.0
 40
3.444198157933448
100
AcDbArc
 50
88.7382837172
 51
94.9990012515
  0
LINE
  5
CE
330
3C
100
AcDbEntity
  8
RUBBERLEG_DESKTO
  6
CONTINUOUS
 62
     7
100
AcDbLine
 10
506.4244320659
 20
202.3258798085
 30
0.0
 11
506.4244320659
 21
203.8267103345
 31
0.0
  0
LINE
  5
CF
330
3C
100
AcDbEntity
  8
RUBBERLEG_DESKTO
  6
CONTINUOUS
 62
     7
100
AcDbLine
 10
466.4244320659
 20
203.8267103345
 30
0.0
 11
466.4244320659
 21
202.3258798085
 31
0.0
  0
ARC
  5
D0
330
3C
100
AcDbEntity
  8
RUBBERLEG_DESKTO
  6
CONTINUOUS
 62
     7
100
AcDbCircle
 10
504.4244320659
 20
202.3258798085
 30
0.0
 40
2.000000000000002
100
AcDbArc
 50
270.0
 51
0.0
  0
ARC
  5
D1
330
3C
100
AcDbEntity
  8
RUBBERLEG_DESKTO
  6
CONTINUOUS
 62
     7
100
AcDbCircle
 10
468.4244320659
 20
202.3258798085
 30
0.0
 40
1.999999999999988
100
AcDbArc
 50
180.0
 51
270.0
  0
ARC
  5
D2
330
3C
100
AcDbEntity
  8
RUBBERLEG_DESKTO
  6
CONTINUOUS
 62
     7
100
AcDbCircle
 10
471.7760781686
 20
201.705172652
 30
0.0
 40
5.110256091671761
100
AcDbArc
 50
92.1830551286
 51
117.4742763854
  0
ARC
  5
D3
330
3C
100
AcDbEntity
  8
RUBBERLEG_DESKTO
  6
CONTINUOUS
 62
     7
100
AcDbCircle
 10
484.8730860491
 20
181.8905078869
 30
0.0
 40
28.84043015203532
100
AcDbArc
 50
122.3627471914
 51
129.3893747194
  0
ARC
  5
D4
330
3C
100
AcDbEntity
  8
RUBBERLEG_DESKTO
  6
CONTINUOUS
 62
     7
100
AcDbCircle
 10
466.9244996792
 20
203.8257331615
 30
0.0
 40
0.500146713226521
100
AcDbArc
 50
134.1398023608
 51
134.9886092222
  0
ARC
  5
D5
330
3C
100
AcDbEntity
  8
RUBBERLEG_DESKTO
  6
CONTINUOUS
 62
     7
100
AcDbCircle
 10
466.9246474596
 20
203.8257902005
 30
0.0
 40
0.5002153239962823
100
AcDbArc
 50
135.0098240715
 51
179.9897286903
  0
ARC
  5
D6
330
3C
100
AcDbEntity
  8
RUBBERLEG_DESKTO
  6
CONTINUOUS
 62
     7
100
AcDbCircle
 10
501.071494378
 20
201.7007854817
 30
0.0
 40
5.114744416967928
100
AcDbArc
 50
62.5355602152
 51
87.7918403131
  0
ARC
  5
D7
330
3C
100
AcDbEntity
  8
RUBBERLEG_DESKTO
  6
CONTINUOUS
 62
     7
100
AcDbCircle
 10
505.9242166722
 20
203.8257902005
 30
0.0
 40
0.5002153239963669
100
AcDbArc
 50
0.0102713097
 51
44.9901759286
  0
ARC
  5
D8
330
3C
100
AcDbEntity
  8
RUBBERLEG_DESKTO
  6
CONTINUOUS
 62
     7
100
AcDbCircle
 10
487.9847964047
 20
181.9046493513
 30
0.0
 40
28.82365788780543
100
AcDbArc
 50
50.6042076227
 51
57.6373481249
  0
ELLIPSE
  5
DA
330
3C
100
AcDbEntity
  8
BRACKET_DESKTOP_
  6
CONTINUOUS
 62
     7
100
AcDbEllipse
 10
265.4244320659
 20
387.2398169188
 30
0.0
 11
3.500000000000003
 21
-8.326672684688674E-13
 31
0.0
210
0.0
220
0.0
230
1.0
 40
0.9925461516
 41
6.053371733282389
 42
6.283185307179586
  0
ELLIPSE
  5
DB
330
3C
100
AcDbEntity
  8
BRACKET_DESKTOP_
  6
CONTINUOUS
 62
     7
100
AcDbEllipse
 10
265.4244320659
 20
387.2398169188
 30
0.0
 11
3.500000000000003
 21
-8.326672684688674E-13
 31
0.0
210
0.0
220
0.0
230
1.0
 40
0.9925461516
 41
3.141592653589793
 42
3.371406227590486
  0
ELLIPSE
  5
DC
330
3C
100
AcDbEntity
  8
BRACKET_DESKTOP_
  6
CONTINUOUS
 62
     7
100
AcDbEllipse
 10
265.4244320659
 20
585.7490472471
 30
0.0
 11
3.500000000000003
 21
1.110223024625156E-13
 31
0.0
210
0.0
220
0.0
230
1.0
 40
0.9925461516
 41
6.078056689729617
 42
6.283185307179586
  0
ELLIPSE
  5
DD
330
3C
100
AcDbEntity
  8
BRACKET_DESKTOP_
  6
CONTINUOUS
 62
     7
100
AcDbEllipse
 10
265.4244320659
 20
585.7490472471
 30
0.0
 11
3.500000000000003
 21
1.110223024625156E-13
 31
0.0
210
0.0
220
0.0
230
1.0
 40
0.9925461516
 41
3.141592653589793
 42
3.346721271272519
  0
ELLIPSE
  5
DE
330
3C
100
AcDbEntity
  8
BRACKET_DESKTOP_
  6
CONTINUOUS
 62
     7
100
AcDbEllipse
 10
465.4244320659
 20
387.2398169188
 30
0.0
 11
3.499999999999989
 21
5.551115123125783E-14
 31
0.0
210
0.0
220
0.0
230
1.0
 40
0.9925461516
 41
6.053371735167437
 42
6.28318530717957
  0
ELLIPSE
  5
DF
330
3C
100
AcDbEntity
  8
BRACKET_DESKTOP_
  6
CONTINUOUS
 62
     7
100
AcDbEllipse
 10
465.4244320659
 20
387.2398169188
 30
0.0
 11
3.499999999999989
 21
5.551115123125783E-14
 31
0.0
210
0.0
220
0.0
230
1.0
 40
0.9925461516
 41
3.141592653589777
 42
3.371406225750491
  0
ELLIPSE
  5
E0
330
3C
100
AcDbEntity
  8
BRACKET_DESKTOP_
  6
CONTINUOUS
 62
     7
100
AcDbEllipse
 10
465.4244320659
 20
585.7490472471
 30
0.0
 11
3.499999999999975
 21
5.551115123125783E-14
 31
0.0
210
0.0
220
0.0
230
1.0
 40
0.9925461516
 41
6.078056694271877
 42
6.283185307179586
  0
ELLIPSE
  5
E1
330
3C
100
AcDbEntity
  8
BRACKET_DESKTOP_
  6
CONTINUOUS
 62
     7
100
AcDbEllipse
 10
465.4244320659
 20
585.7490472471
 30
0.0
 11
3.499999999999975
 21
5.551115123125783E-14
 31
0.0
210
0.0
220
0.0
230
1.0
 40
0.9925461516
 41
3.141592653589777
 42
3.346721266871816
  0
LINE
  5
E2
330
3C
100
AcDbEntity
  8
BRACKET_DESKTOP_
  6
CONTINUOUS
 62
     7
100
AcDbLine
 10
528.9244320659
 20
603.4056868549
 30
0.0
 11
528.9244320659
 21
602.4131407033
 31
0.0
  0
LINE
  5
E3
330
3C
100
AcDbEntity
  8
BRACKET_DESKTOP_
  6
CONTINUOUS
 62
     7
100
AcDbLine
 10
528.9244320659
 20
602.4131407033
 30
0.0
 11
528.9244320659
 21
601.9778022992
 31
0.0
  0
LINE
  5
E4
330
3C
100
AcDbEntity
  8
BRACKET_DESKTOP_
  6
CONTINUOUS
 62
     7
100
AcDbLine
 10
201.9244320659
 20
601.9778022992
 30
0.0
 11
201.9244320659
 21
602.4131407033
 31
0.0
  0
LINE
  5
E5
330
3C
100
AcDbEntity
  8
BRACKET_DESKTOP_
  6
CONTINUOUS
 62
     7
100
AcDbLine
 10
201.9244320659
 20
603.4056868549
 30
0.0
 11
201.9244320659
 21
602.4131407033
 31
0.0
  0
LINE
  5
E6
330
3C
100
AcDbEntity
  8
BRACKET_DESKTOP_
  6
CONTINUOUS
 62
     7
100
AcDbLine
 10
201.9244320659
 20
603.4056868549
 30
0.0
 11
528.9244320659
 21
603.4056868549
 31
0.0
  0
LINE
  5
E7
330
3C
100
AcDbEntity
  8
BRACKET_DESKTOP_
  6
CONTINUOUS
 62
     7
100
AcDbLine
 10
201.9244320659
 20
602.4131407033
 30
0.0
 11
528.9244320659
 21
602.4131407033
 31
0.0
  0
LINE
  5
E8
330
3C
100
AcDbEntity
  8
BRACKET_DESKTOP_
  6
CONTINUOUS
 62
     7
100
AcDbLine
 10
201.9244320659
 20
370.3875149775
 30
0.0
 11
201.9244320659
 21
370.3793157443
 31
0.0
  0
LINE
  5
E9
330
3C
100
AcDbEntity
  8
BRACKET_DESKTOP_
  6
CONTINUOUS
 62
     7
100
AcDbLine
 10
528.9244320659
 20
370.3793157443
 30
0.0
 11
528.9244320659
 21
370.3875149775
 31
0.0
  0
LINE
  5
EA
330
3C
100
AcDbEntity
  8
BRACKET_DESKTOP_
  6
CONTINUOUS
 62
     7
100
AcDbLine
 10
528.9244320659
 20
372.1424335225
 30
0.0
 11
528.9244320659
 21
373.1349796741
 31
0.0
  0
LINE
  5
EB
330
3C
100
AcDbEntity
  8
BRACKET_DESKTOP_
  6
CONTINUOUS
 62
     7
100
AcDbLine
 10
528.9244320659
 20
370.3875149775
 30
0.0
 11
528.9244320659
 21
372.1424335225
 31
0.0
  0
LINE
  5
EC
330
3C
100
AcDbEntity
  8
BRACKET_DESKTOP_
  6
CONTINUOUS
 62
     7
100
AcDbLine
 10
201.9244320659
 20
372.1424335225
 30
0.0
 11
201.9244320659
 21
370.3875149775
 31
0.0
  0
LINE
  5
ED
330
3C
100
AcDbEntity
  8
BRACKET_DESKTOP_
  6
CONTINUOUS
 62
     7
100
AcDbLine
 10
201.9244320659
 20
372.1424335225
 30
0.0
 11
201.9244320659
 21
373.1349796741
 31
0.0
  0
LINE
  5
EE
330
3C
100
AcDbEntity
  8
BRACKET_DESKTOP_
  6
CONTINUOUS
 62
     7
100
AcDbLine
 10
528.9244320659
 20
372.1424335225
 30
0.0
 11
201.9244320659
 21
372.1424335225
 31
0.0
  0
LINE
  5
EF
330
3C
100
AcDbEntity
  8
BRACKET_DESKTOP_
  6
CONTINUOUS
 62
     7
100
AcDbLine
 10
528.9244320659
 20
373.1349796741
 30
0.0
 11
201.9244320659
 21
373.1349796741
 31
0.0
  0
ELLIPSE
  5
F0
330
3C
100
AcDbEntity
  8
BRACKET_DESKTOP_
  6
CONTINUOUS
 62
     7
100
AcDbEllipse
 10
465.4244320659
 20
585.7490472471
 30
0.0
 11
-3.500000000000003
 21
1.110223024625156E-13
 31
0.0
210
0.0
220
0.0
230
1.0
 40
0.9925461516
 41
3.141592653589793
 42
6.283185307179586
  0
ELLIPSE
  5
F1
330
3C
100
AcDbEntity
  8
BRACKET_DESKTOP_
  6
CONTINUOUS
 62
     7
100
AcDbEllipse
 10
465.4244320659
 20
585.6271779037
 30
0.0
 11
-3.500000000000003
 21
1.110223024625156E-13
 31
0.0
210
0.0
220
0.0
230
1.0
 40
0.9925461516
 41
3.141592653589793
 42
6.283185307179586
  0
ELLIPSE
  5
F2
330
3C
100
AcDbEntity
  8
BRACKET_DESKTOP_
  6
CONTINUOUS
 62
     7
100
AcDbEllipse
 10
465.4244320659
 20
387.2398169188
 30
0.0
 11
-3.500000000000031
 21
-5.689893001203927E-13
 31
0.0
210
0.0
220
0.0
230
1.0
 40
0.9925461516
 41
3.141592653589629
 42
6.283185307179569
  0
ELLIPSE
  5
F3
330
3C
100
AcDbEntity
  8
BRACKET_DESKTOP_
  6
CONTINUOUS
 62
     7
100
AcDbEllipse
 10
265.4244320659
 20
585.7490472471
 30
0.0
 11
-3.500000000000003
 21
-9.992007221626409E-13
 31
0.0
210
0.0
220
0.0
230
1.0
 40
0.9925461516
 41
3.141592653589793
 42
6.283185307179586
  0
ELLIPSE
  5
F4
330
3C
100
AcDbEntity
  8
BRACKET_DESKTOP_
  6
CONTINUOUS
 62
     7
100
AcDbEllipse
 10
265.4244320659
 20
387.2398169188
 30
0.0
 11
-3.499999999999989
 21
-5.551115123125783E-14
 31
0.0
210
0.0
220
0.0
230
1.0
 40
0.9925461516
 41
3.141592653589777
 42
6.28318530717957
  0
ELLIPSE
  5
F5
330
3C
100
AcDbEntity
  8
BRACKET_DESKTOP_
  6
CONTINUOUS
 62
     7
100
AcDbEllipse
 10
465.4244320659
 20
387.1179475754
 30
0.0
 11
-3.500000000000017
 21
9.714451465470120E-14
 31
0.0
210
0.0
220
0.0
230
1.0
 40
0.9925461516
 41
3.141592653589793
 42
6.283185307179586
  0
ELLIPSE
  5
F6
330
3C
100
AcDbEntity
  8
BRACKET_DESKTOP_
  6
CONTINUOUS
 62
     7
100
AcDbEllipse
 10
265.4244320659
 20
585.6271779037
 30
0.0
 11
-3.500000000000003
 21
-9.992007221626409E-13
 31
0.0
210
0.0
220
0.0
230
1.0
 40
0.9925461516
 41
3.141592653589793
 42
6.283185307179586
  0
ELLIPSE
  5
F7
330
3C
100
AcDbEntity
  8
BRACKET_DESKTOP_
  6
CONTINUOUS
 62
     7
100
AcDbEllipse
 10
265.4244320659
 20
387.1179475754
 30
0.0
 11
-3.500000000000003
 21
-9.853229343548264E-13
 31
0.0
210
0.0
220
0.0
230
1.0
 40
0.9925461516
 41
3.141592653589793
 42
6.283185307179586
  0
LINE
  5
F8
330
3C
100
AcDbEntity
  8
BRACKET_DESKTOP_
  6
CONTINUOUS
 62
     7
100
AcDbLine
 10
201.9244320659
 20
370.3793157443
 30
0.0
 11
528.9244320659
 21
370.3793157443
 31
0.0
  0
LINE
  5
F9
330
3C
100
AcDbEntity
  8
RUBBERLEG_DESKTO
  6
CONTINUOUS
 62
     7
100
AcDbLine
 10
257.1744320659
 20
206.8258798085
 30
0.0
 11
258.9421990189
 21
206.8258798085
 31
0.0
  0
LINE
  5
FA
330
3C
100
AcDbEntity
  8
RUBBERLEG_DESKTO
  6
CONTINUOUS
 62
     7
100
AcDbLine
 10
229.906665113
 20
206.8258798085
 30
0.0
 11
231.6744320659
 21
206.8258798085
 31
0.0
  0
LINE
  5
FB
330
3C
100
AcDbEntity
  8
RUBBERLEG_DESKTO
  6
CONTINUOUS
 62
     7
100
AcDbLine
 10
231.6744320659
 20
206.8258798085
 30
0.0
 11
257.1744320659
 21
206.8258798085
 31
0.0
  0
LINE
  5
FC
330
3C
100
AcDbEntity
  8
RUBBERLEG_DESKTO
  6
CONTINUOUS
 62
     7
100
AcDbLine
 10
257.1744320659
 20
200.3258798085
 30
0.0
 11
231.6744320659
 21
200.3258798085
 31
0.0
  0
LINE
  5
FD
330
3C
100
AcDbEntity
  8
RUBBERLEG_DESKTO
  6
CONTINUOUS
 62
     7
100
AcDbLine
 10
231.6744320659
 20
200.3258798085
 30
0.0
 11
226.4244320659
 21
200.3258798085
 31
0.0
  0
LINE
  5
FE
330
3C
100
AcDbEntity
  8
RUBBERLEG_DESKTO
  6
CONTINUOUS
 62
     7
100
AcDbLine
 10
257.1744320659
 20
200.3258798085
 30
0.0
 11
262.4244320659
 21
200.3258798085
 31
0.0
  0
ARC
  5
FF
330
3C
100
AcDbEntity
  8
RUBBERLEG_DESKTO
  6
CONTINUOUS
 62
     7
100
AcDbCircle
 10
259.0125791769
 20
203.3688519098
 30
0.0
 40
3.457744244375577
100
AcDbArc
 50
84.890327149
 51
91.1662992472
  0
ARC
  5
100
330
3C
100
AcDbEntity
  8
RUBBERLEG_DESKTO
  6
CONTINUOUS
 62
     7
100
AcDbCircle
 10
229.8308261991
 20
203.3825167126
 30
0.0
 40
3.444198157933541
100
AcDbArc
 50
88.7382837172
 51
94.9990012515
  0
LINE
  5
101
330
3C
100
AcDbEntity
  8
RUBBERLEG_DESKTO
  6
CONTINUOUS
 62
     7
100
AcDbLine
 10
264.4244320659
 20
202.3258798085
 30
0.0
 11
264.4244320659
 21
203.8267103345
 31
0.0
  0
LINE
  5
102
330
3C
100
AcDbEntity
  8
RUBBERLEG_DESKTO
  6
CONTINUOUS
 62
     7
100
AcDbLine
 10
224.4244320659
 20
203.8267103345
 30
0.0
 11
224.4244320659
 21
202.3258798085
 31
0.0
  0
ARC
  5
103
330
3C
100
AcDbEntity
  8
RUBBERLEG_DESKTO
  6
CONTINUOUS
 62
     7
100
AcDbCircle
 10
262.4244320659
 20
202.3258798085
 30
0.0
 40
2.000000000000002
100
AcDbArc
 50
270.0
 51
0.0
  0
ARC
  5
104
330
3C
100
AcDbEntity
  8
RUBBERLEG_DESKTO
  6
CONTINUOUS
 62
     7
100
AcDbCircle
 10
226.4244320659
 20
202.3258798085
 30
0.0
 40
2.000000000000002
100
AcDbArc
 50
180.0
 51
270.0
  0
ARC
  5
105
330
3C
100
AcDbEntity
  8
RUBBERLEG_DESKTO
  6
CONTINUOUS
 62
     7
100
AcDbCircle
 10
229.7760781686
 20
201.705172652
 30
0.0
 40
5.110256091671098
100
AcDbArc
 50
92.1830551286
 51
117.4742763854
  0
ARC
  5
106
330
3C
100
AcDbEntity
  8
RUBBERLEG_DESKTO
  6
CONTINUOUS
 62
     7
100
AcDbCircle
 10
242.8730860491
 20
181.8905078869
 30
0.0
 40
28.84043015200925
100
AcDbArc
 50
122.3627471914
 51
129.3893747194
  0
ARC
  5
107
330
3C
100
AcDbEntity
  8
RUBBERLEG_DESKTO
  6
CONTINUOUS
 62
     7
100
AcDbCircle
 10
224.9244996792
 20
203.8257331615
 30
0.0
 40
0.5001467132266917
100
AcDbArc
 50
134.1398023608
 51
134.9886092222
  0
ARC
  5
108
330
3C
100
AcDbEntity
  8
RUBBERLEG_DESKTO
  6
CONTINUOUS
 62
     7
100
AcDbCircle
 10
224.9246474596
 20
203.8257902005
 30
0.0
 40
0.5002153239961117
100
AcDbArc
 50
135.0098240714
 51
179.9897286903
  0
ARC
  5
109
330
3C
100
AcDbEntity
  8
RUBBERLEG_DESKTO
  6
CONTINUOUS
 62
     7
100
AcDbCircle
 10
259.071494378
 20
201.7007854817
 30
0.0
 40
5.114744416968639
100
AcDbArc
 50
62.5355602152
 51
87.7918403131
  0
ARC
  5
10A
330
3C
100
AcDbEntity
  8
RUBBERLEG_DESKTO
  6
CONTINUOUS
 62
     7
100
AcDbCircle
 10
263.9242166722
 20
203.8257902005
 30
0.0
 40
0.5002153239967302
100
AcDbArc
 50
0.0102713098
 51
44.9901759285
  0
ARC
  5
10B
330
3C
100
AcDbEntity
  8
RUBBERLEG_DESKTO
  6
CONTINUOUS
 62
     7
100
AcDbCircle
 10
245.9847964047
 20
181.9046493513
 30
0.0
 40
28.82365788782705
100
AcDbArc
 50
50.6042076227
 51
57.6373481249
  0
LINE
  5
10E
330
3C
100
AcDbEntity
  8
DV1_デフォルト
  6
CENTER2
 62
     7
100
AcDbLine
 10
260.6244318379
 20
587.0896100246
 30
0.0
 11
270.2244322939
 21
587.0896100246
 31
0.0
  0
LINE
  5
10F
330
3C
100
AcDbEntity
  8
DV1_デフォルト
  6
CENTER2
 62
     7
100
AcDbLine
 10
265.4244320659
 20
582.2896097966
 30
0.0
 11
265.4244320659
 21
591.8896102525
 31
0.0
  0
LINE
  5
110
330
3C
100
AcDbEntity
  8
DV1_デフォルト
  6
CENTER2
 62
     7
100
AcDbLine
 10
460.6244318379
 20
587.0896100246
 30
0.0
 11
470.2244322939
 21
587.0896100246
 31
0.0
  0
LINE
  5
111
330
3C
100
AcDbEntity
  8
DV1_デフォルト
  6
CENTER2
 62
     7
100
AcDbLine
 10
465.4244320659
 20
582.2896097966
 30
0.0
 11
465.4244320659
 21
591.8896102525
 31
0.0
  0
LINE
  5
112
330
3C
100
AcDbEntity
  8
DV1_デフォルト
  6
CENTER2
 62
     7
100
AcDbLine
 10
460.6244318379
 20
388.5270618585
 30
0.0
 11
470.2244322939
 21
388.5270618585
 31
0.0
  0
LINE
  5
113
330
3C
100
AcDbEntity
  8
DV1_デフォルト
  6
CENTER2
 62
     7
100
AcDbLine
 10
465.4244320659
 20
383.7270616306
 30
0.0
 11
465.4244320659
 21
393.3270620865
 31
0.0
  0
LINE
  5
114
330
3C
100
AcDbEntity
  8
DV1_デフォルト
  6
CENTER2
 62
     7
100
AcDbLine
 10
270.2244322939
 20
388.5270618585
 30
0.0
 11
260.6244318379
 21
388.5270618585
 31
0.0
  0
LINE
  5
115
330
3C
100
AcDbEntity
  8
DV1_デフォルト
  6
CENTER2
 62
     7
100
AcDbLine
 10
265.4244320659
 20
393.3270620865
 30
0.0
 11
265.4244320659
 21
383.7270616306
 31
0.0
  0
LINE
  5
116
330
3C
100
AcDbEntity
  8
DV1_デフォルト
  6
CONTINUOUS
 62
     7
100
AcDbLine
 10
272.4107587434
 20
587.0896100246
 30
0.0
 11
459.5967247698
 21
587.0896100246
 31
0.0
  0
LINE
  5
117
330
3C
100
AcDbEntity
  8
DV1_デフォルト
  6
CONTINUOUS
 62
     7
100
AcDbLine
 10
465.4244320659
 20
580.8903229683
 30
0.0
 11
465.4244320659
 21
394.5908818415
 31
0.0
  0
LINE
  5
118
330
3C
100
AcDbEntity
  8
DV1_デフォルト
  6
CONTINUOUS
 62
     7
100
AcDbLine
 10
459.5967247698
 20
388.5270618585
 30
0.0
 11
272.4107587434
 21
388.5270618585
 31
0.0
  0
LINE
  5
119
330
3C
100
AcDbEntity
  8
DV1_デフォルト
  6
CONTINUOUS
 62
     7
100
AcDbLine
 10
265.4244320659
 20
394.5908818415
 30
0.0
 11
265.4244320659
 21
580.8903229683
 31
0.0
  0
ENDBLK
  5
11B
330
3C
100
AcDbEntity
  8
0
100
AcDbBlockEnd
  0
BLOCK
  5
1B1
330
11C
100
AcDbEntity
  8
0
100
AcDbBlockBegin
  2
SE1
 70
     0
 10
0.0
 20
0.0
 30
0.0
  3
SE1
  1

  0
LINE
  5
11E
330
11C
100
AcDbEntity
  8
PIPEFRAME_SIDEWA
  6
CONTINUOUS
 62
     7
100
AcDbLine
 10
824.9280494347
 20
217.4961190373
 30
0.0
 11
821.9280494347
 21
220.4961190373
 31
0.0
  0
LINE
  5
11F
330
11C
100
AcDbEntity
  8
PIPEFRAME_SIDEWA
  6
CONTINUOUS
 62
     7
100
AcDbLine
 10
834.8030494347
 20
217.4961190373
 30
0.0
 11
824.9280494347
 21
217.4961190373
 31
0.0
  0
LINE
  5
120
330
11C
100
AcDbEntity
  8
PIPEFRAME_SIDEWA
  6
CONTINUOUS
 62
     7
100
AcDbLine
 10
837.8030494347
 20
220.4961190373
 30
0.0
 11
834.8030494347
 21
217.4961190373
 31
0.0
  0
ARC
  5
121
330
11C
100
AcDbEntity
  8
PIPEFRAME_SIDEWA
  6
CONTINUOUS
 62
     7
100
AcDbCircle
 10
871.9280494347
 20
357.0534651721
 30
0.0
 40
34.12500000000007
100
AcDbArc
 50
173.0
 51
180.0
  0
ARC
  5
122
330
11C
100
AcDbEntity
  8
PIPEFRAME_SIDEWA
  6
CONTINUOUS
 62
     7
100
AcDbCircle
 10
871.9280494347
 20
357.0534651721
 30
0.0
 40
50.00000000000006
100
AcDbArc
 50
173.0
 51
180.0
  0
ARC
  5
123
330
11C
100
AcDbEntity
  8
PIPEFRAME_SIDEWA
  6
CONTINUOUS
 62
     7
100
AcDbCircle
 10
891.9954138791
 20
603.5698122166
 30
0.0
 40
24.00000000000002
100
AcDbArc
 50
7.2
 51
173.0
  0
ARC
  5
124
330
11C
100
AcDbEntity
  8
PIPEFRAME_SIDEWA
  6
CONTINUOUS
 62
     7
100
AcDbCircle
 10
891.9954138791
 20
603.5698122166
 30
0.0
 40
39.87500000000001
100
AcDbArc
 50
7.2
 51
173.0
  0
ARC
  5
125
330
11C
100
AcDbEntity
  8
PIPEFRAME_SIDEWA
  6
CONTINUOUS
 62
     7
100
AcDbCircle
 10
964.8712717811
 20
336.8711159106
 30
0.0
 40
0.9999999999999523
100
AcDbArc
 50
277.2
 51
7.2
  0
ARC
  5
126
330
11C
100
AcDbEntity
  8
PIPEFRAME_SIDEWA
  6
CONTINUOUS
 62
     7
100
AcDbCircle
 10
951.1056803003
 20
335.1321172949
 30
0.0
 40
0.9999999999999886
100
AcDbArc
 50
187.2
 51
277.2
  0
LINE
  5
127
330
11C
100
AcDbEntity
  8
PIPEFRAME_SIDEWA
  6
CONTINUOUS
 62
     7
100
AcDbLine
 10
852.4176360824
 20
608.4293522848
 30
0.0
 11
822.3007418526
 21
363.1469323424
 31
0.0
  0
LINE
  5
128
330
11C
100
AcDbEntity
  8
PIPEFRAME_SIDEWA
  6
CONTINUOUS
 62
     7
100
AcDbLine
 10
838.0574120099
 20
361.2122565158
 30
0.0
 11
868.1743062397
 21
606.4946764583
 31
0.0
  0
LINE
  5
129
330
11C
100
AcDbEntity
  8
PIPEFRAME_SIDEWA
  6
CONTINUOUS
 62
     7
100
AcDbLine
 10
965.8633864824
 20
336.9964491442
 30
0.0
 11
931.5559875941
 21
608.5674749049
 31
0.0
  0
LINE
  5
12A
330
11C
100
AcDbEntity
  8
PIPEFRAME_SIDEWA
  6
CONTINUOUS
 62
     7
100
AcDbLine
 10
915.8061667107
 20
606.5778098221
 30
0.0
 11
950.113565599
 21
335.0067840613
 31
0.0
  0
LINE
  5
12B
330
11C
100
AcDbEntity
  8
PIPEFRAME_SIDEWA
  6
CONTINUOUS
 62
     7
100
AcDbLine
 10
837.8030494347
 20
220.4961190373
 30
0.0
 11
837.8030494347
 21
357.0534651721
 31
0.0
  0
LINE
  5
12C
330
11C
100
AcDbEntity
  8
PIPEFRAME_SIDEWA
  6
CONTINUOUS
 62
     7
100
AcDbLine
 10
821.9280494347
 20
357.0534651721
 30
0.0
 11
821.9280494347
 21
220.4961190373
 31
0.0
  0
LINE
  5
12D
330
11C
100
AcDbEntity
  8
RUBBERLEG_DESKTO
  6
CONTINUOUS
 62
     7
100
AcDbLine
 10
751.6735770446
 20
206.8258798085
 30
0.0
 11
753.4413439976
 21
206.8258798085
 31
0.0
  0
LINE
  5
12E
330
11C
100
AcDbEntity
  8
RUBBERLEG_DESKTO
  6
CONTINUOUS
 62
     7
100
AcDbLine
 10
724.4058100917
 20
206.8258798085
 30
0.0
 11
726.1735770446
 21
206.8258798085
 31
0.0
  0
LINE
  5
12F
330
11C
100
AcDbEntity
  8
RUBBERLEG_DESKTO
  6
CONTINUOUS
 62
     7
100
AcDbLine
 10
726.1735770446
 20
206.8258798085
 30
0.0
 11
751.6735770446
 21
206.8258798085
 31
0.0
  0
LINE
  5
130
330
11C
100
AcDbEntity
  8
RUBBERLEG_DESKTO
  6
CONTINUOUS
 62
     7
100
AcDbLine
 10
751.6735770446
 20
200.3258798085
 30
0.0
 11
726.1735770446
 21
200.3258798085
 31
0.0
  0
LINE
  5
131
330
11C
100
AcDbEntity
  8
RUBBERLEG_DESKTO
  6
CONTINUOUS
 62
     7
100
AcDbLine
 10
726.1735770446
 20
200.3258798085
 30
0.0
 11
720.9235770446
 21
200.3258798085
 31
0.0
  0
LINE
  5
132
330
11C
100
AcDbEntity
  8
RUBBERLEG_DESKTO
  6
CONTINUOUS
 62
     7
100
AcDbLine
 10
751.6735770446
 20
200.3258798085
 30
0.0
 11
756.9235770446
 21
200.3258798085
 31
0.0
  0
ARC
  5
133
330
11C
100
AcDbEntity
  8
RUBBERLEG_DESKTO
  6
CONTINUOUS
 62
     7
100
AcDbCircle
 10
753.5117241556
 20
203.3688519098
 30
0.0
 40
3.457744244375588
100
AcDbArc
 50
84.890327149
 51
91.1662992472
  0
ARC
  5
134
330
11C
100
AcDbEntity
  8
RUBBERLEG_DESKTO
  6
CONTINUOUS
 62
     7
100
AcDbCircle
 10
724.3299711778
 20
203.3825167126
 30
0.0
 40
3.444198157933448
100
AcDbArc
 50
88.7382837172
 51
94.9990012515
  0
LINE
  5
135
330
11C
100
AcDbEntity
  8
RUBBERLEG_DESKTO
  6
CONTINUOUS
 62
     7
100
AcDbLine
 10
758.9235770446
 20
202.3258798085
 30
0.0
 11
758.9235770446
 21
203.8267103345
 31
0.0
  0
LINE
  5
136
330
11C
100
AcDbEntity
  8
RUBBERLEG_DESKTO
  6
CONTINUOUS
 62
     7
100
AcDbLine
 10
718.9235770446
 20
203.8267103345
 30
0.0
 11
718.9235770446
 21
202.3258798085
 31
0.0
  0
ARC
  5
137
330
11C
100
AcDbEntity
  8
RUBBERLEG_DESKTO
  6
CONTINUOUS
 62
     7
100
AcDbCircle
 10
756.9235770446
 20
202.3258798085
 30
0.0
 40
2.000000000000002
100
AcDbArc
 50
270.0
 51
0.0
  0
ARC
  5
138
330
11C
100
AcDbEntity
  8
RUBBERLEG_DESKTO
  6
CONTINUOUS
 62
     7
100
AcDbCircle
 10
720.9235770446
 20
202.3258798085
 30
0.0
 40
1.999999999999988
100
AcDbArc
 50
180.0
 51
270.0
  0
ARC
  5
139
330
11C
100
AcDbEntity
  8
RUBBERLEG_DESKTO
  6
CONTINUOUS
 62
     7
100
AcDbCircle
 10
724.2752231473
 20
201.705172652
 30
0.0
 40
5.110256091670953
100
AcDbArc
 50
92.1830551286
 51
117.4742763854
  0
ARC
  5
13A
330
11C
100
AcDbEntity
  8
RUBBERLEG_DESKTO
  6
CONTINUOUS
 62
     7
100
AcDbCircle
 10
737.3722310278
 20
181.8905078869
 30
0.0
 40
28.84043015200897
100
AcDbArc
 50
122.3627471914
 51
129.3893747194
  0
ARC
  5
13B
330
11C
100
AcDbEntity
  8
RUBBERLEG_DESKTO
  6
CONTINUOUS
 62
     7
100
AcDbCircle
 10
719.4237924383
 20
203.8257902005
 30
0.0
 40
0.500215323996236
100
AcDbArc
 50
135.0098240715
 51
179.9897286903
  0
ARC
  5
13C
330
11C
100
AcDbEntity
  8
RUBBERLEG_DESKTO
  6
CONTINUOUS
 62
     7
100
AcDbCircle
 10
753.5706393567
 20
201.7007854817
 30
0.0
 40
5.114744416968139
100
AcDbArc
 50
62.5355602152
 51
87.7918403131
  0
ARC
  5
13D
330
11C
100
AcDbEntity
  8
RUBBERLEG_DESKTO
  6
CONTINUOUS
 62
     7
100
AcDbCircle
 10
758.4233616509
 20
203.8257902005
 30
0.0
 40
0.5002153239964886
100
AcDbArc
 50
0.0102713097
 51
44.9901759285
  0
ARC
  5
13E
330
11C
100
AcDbEntity
  8
RUBBERLEG_DESKTO
  6
CONTINUOUS
 62
     7
100
AcDbCircle
 10
740.4839413834
 20
181.9046493513
 30
0.0
 40
28.82365788781561
100
AcDbArc
 50
50.6042076227
 51
57.6373481249
  0
LINE
  5
140
330
11C
100
AcDbEntity
  8
STAY_BRACKET_DES
  6
HIDDEN2
 62
     7
100
AcDbLine
 10
862.8575973228
 20
570.3733775989
 30
0.0
 11
866.5136776249
 21
600.1497621481
 31
0.0
  0
ARC
  5
141
330
11C
100
AcDbEntity
  8
PIPEFRAM_BOTTOM_
  6
CONTINUOUS
 62
     7
100
AcDbCircle
 10
687.8610770446
 20
212.2633798085
 30
0.0
 40
7.9375
100
AcDbArc
 50
90.0
 51
270.0
  0
SPLINE
  5
142
330
11C
100
AcDbEntity
  8
PIPEFRAM_BOTTOM_
  6
CONTINUOUS
 62
     7
100
AcDbSpline
210
0.0
220
0.0
230
1.0
 70
     8
 71
     3
 72
    24
 73
    20
 74
     0
 42
0.0000000013456338
 43
0.0000000001
 40
0.0
 40
0.0
 40
0.0
 40
0.0
 40
0.0312928096818998
 40
0.0627122621521626
 40
0.1251898937622546
 40
0.1876311324090448
 40
0.2503699222248956
 40
0.312856941139764
 40
0.3754881923588894
 40
0.4378748184584189
 40
0.5005384466856054
 40
0.5629851502405012
 40
0.6254231671488218
 40
0.7495258777077763
 40
0.8210576900972117
 40
0.8746387205707739
 40
0.9372283375531624
 40
0.968528069673736
 40
1.0
 40
1.0
 40
1.0
 40
1.0
 10
697.2153542204824
 20
204.6883063493787
 30
0.0
 10
697.1025700925771
 20
204.6615962464474
 30
0.0
 10
696.8765453965623
 20
204.6080679441259
 30
0.0
 10
696.4279221592094
 20
204.5092143721033
 30
0.0
 10
695.8782453490464
 20
204.4055475106761
 30
0.0
 10
695.2633580938837
 20
204.3315918126754
 30
0.0
 10
694.721783563117
 20
204.3181115409799
 30
0.0
 10
694.2796079279773
 20
204.365471499534
 30
0.0
 10
693.9559632388977
 20
204.4642133453538
 30
0.0
 10
693.7592412938534
 20
204.5991087789771
 30
0.0
 10
693.6933094280098
 20
204.7516416742238
 30
0.0
 10
693.7595447553842
 20
204.9022093266024
 30
0.0
 10
694.0195041436294
 20
205.0734733328295
 30
0.0
 10
694.562806085747
 20
205.1634842110279
 30
0.0
 10
695.291273040926
 20
205.1154918520754
 30
0.0
 10
695.9072909195223
 20
205.0253178529302
 30
0.0
 10
696.4250413420012
 20
204.9240996104706
 30
0.0
 10
696.874657900599
 20
204.8272939834663
 30
0.0
 10
697.1015812781769
 20
204.7766894400806
 30
0.0
 10
697.2153542204592
 20
204.7513177579943
 30
0.0
  0
ARC
  5
143
330
11C
100
AcDbEntity
  8
PIPEFRAM_BOTTOM_
  6
CONTINUOUS
 62
     7
100
AcDbCircle
 10
975.381383645
 20
322.0716842768
 30
0.0
 40
7.974388774912602
100
AcDbArc
 50
168.9294957812
 51
205.4705042188
  0
LINE
  5
144
330
11C
100
AcDbEntity
  8
PIPEFRAM_BOTTOM_
  6
CONTINUOUS
 62
     7
100
AcDbLine
 10
965.9887197159
 20
336.0043344428
 30
0.0
 11
950.2388988326
 21
334.01466936
 31
0.0
  0
SPLINE
  5
145
330
11C
100
AcDbEntity
  8
PIPEFRAM_BOTTOM_
  6
CONTINUOUS
 62
     7
100
AcDbSpline
210
0.0
220
0.0
230
1.0
 70
     8
 71
     3
 72
    13
 73
     9
 74
     0
 42
0.0000000010149656
 43
0.0000000001
 40
0.0
 40
0.0
 40
0.0
 40
0.0
 40
0.0312278823044974
 40
0.0623784423340891
 40
0.1249968510412287
 40
0.1872361133858123
 40
0.2497483764820083
 40
0.2733487498303621
 40
0.2733487498303621
 40
0.2733487498303621
 40
0.2733487498303621
 10
697.2153542204592
 20
204.7513177579943
 30
0.0
 10
697.3285201438916
 20
204.725993873792
 30
0.0
 10
697.5545717845433
 20
204.6754088089777
 30
0.0
 10
698.0036609018174
 20
204.5765288679998
 30
0.0
 10
698.5517843781073
 20
204.464051507395
 30
0.0
 10
699.1643922602598
 20
204.3652670223839
 30
0.0
 10
699.593161119782
 20
204.327860820629
 30
0.0
 10
699.8111648196962
 20
204.325434291631
 30
0.0
 10
699.8684077896492
 20
204.3262155869616
 30
0.0
  0
ARC
  5
146
330
11C
100
AcDbEntity
  8
PIPEFRAM_BOTTOM_
  6
CONTINUOUS
 62
     7
100
AcDbCircle
 10
937.3942677431
 20
244.2008798085
 30
0.0
 40
23.99999999999993
100
AcDbArc
 50
270.0
 51
7.2
  0
ARC
  5
147
330
11C
100
AcDbEntity
  8
PIPEFRAM_BOTTOM_
  6
CONTINUOUS
 62
     7
100
AcDbCircle
 10
937.3942677431
 20
244.2008798085
 30
0.0
 40
39.875
100
AcDbArc
 50
270.0
 51
0.0
  0
ARC
  5
148
330
11C
100
AcDbEntity
  8
PIPEFRAM_BOTTOM_
  6
CONTINUOUS
 62
     7
100
AcDbCircle
 10
937.3942677431
 20
244.2008798085
 30
0.0
 40
39.87499999999999
100
AcDbArc
 50
0.0
 51
7.2
  0
LINE
  5
149
330
11C
100
AcDbEntity
  8
PIPEFRAM_BOTTOM_
  6
CONTINUOUS
 62
     7
100
AcDbLine
 10
699.8138501598
 20
204.3258798085
 30
0.0
 11
719.2517540499
 21
204.3258798085
 31
0.0
  0
LINE
  5
14A
330
11C
100
AcDbEntity
  8
PIPEFRAM_BOTTOM_
  6
CONTINUOUS
 62
     7
100
AcDbLine
 10
687.8610770446
 20
204.3258798085
 30
0.0
 11
694.8872488951
 21
204.3258798085
 31
0.0
  0
LINE
  5
14B
330
11C
100
AcDbEntity
  8
PIPEFRAM_BOTTOM_
  6
CONTINUOUS
 62
     7
100
AcDbLine
 10
719.7985770446
 20
220.2008798085
 30
0.0
 11
687.8610770446
 21
220.2008798085
 31
0.0
  0
LINE
  5
14C
330
11C
100
AcDbEntity
  8
PIPEFRAM_BOTTOM_
  6
CONTINUOUS
 62
     7
100
AcDbLine
 10
950.2388988326
 20
334.01466936
 30
0.0
 11
961.2050205746
 21
247.2088774141
 31
0.0
  0
LINE
  5
14D
330
11C
100
AcDbEntity
  8
PIPEFRAM_BOTTOM_
  6
CONTINUOUS
 62
     7
100
AcDbLine
 10
967.5553851355
 20
323.6029006764
 30
0.0
 11
965.9887197159
 21
336.0043344428
 31
0.0
  0
LINE
  5
14E
330
11C
100
AcDbEntity
  8
PIPEFRAM_BOTTOM_
  6
CONTINUOUS
 62
     7
100
AcDbLine
 10
976.954841458
 20
249.1985424969
 30
0.0
 11
968.1820513033
 21
318.6423271698
 31
0.0
  0
LINE
  5
14F
330
11C
100
AcDbEntity
  8
PIPEFRAM_BOTTOM_
  6
CONTINUOUS
 62
     7
100
AcDbLine
 10
822.2232886634
 20
220.2008798085
 30
0.0
 11
719.7985770446
 21
220.2008798085
 31
0.0
  0
LINE
  5
150
330
11C
100
AcDbEntity
  8
PIPEFRAM_BOTTOM_
  6
CONTINUOUS
 62
     7
100
AcDbLine
 10
937.3942677431
 20
220.2008798085
 30
0.0
 11
837.507810206
 21
220.2008798085
 31
0.0
  0
LINE
  5
151
330
11C
100
AcDbEntity
  8
PIPEFRAM_BOTTOM_
  6
CONTINUOUS
 62
     7
100
AcDbLine
 10
758.595346643
 20
204.3258798085
 30
0.0
 11
898.2517163493
 21
204.3258798085
 31
0.0
  0
ARC
  5
152
330
11C
100
AcDbEntity
  8
RUBBERLEG_DESKTO
  6
CONTINUOUS
 62
     7
100
AcDbCircle
 10
687.8610770446
 20
212.2633798085
 30
0.0
 40
7.937500000000012
100
AcDbArc
 50
229.72610706
 51
258.569657763
  0
ARC
  5
153
330
11C
100
AcDbEntity
  8
RUBBERLEG_DESKTO
  6
CONTINUOUS
 62
     7
100
AcDbCircle
 10
687.8610770446
 20
212.2633798086
 30
0.0
 40
7.937500000003999
100
AcDbArc
 50
224.7249131549
 51
229.72610706
  0
LINE
  5
154
330
11C
100
AcDbEntity
  8
RUBBERLEG_DESKTO
  6
CONTINUOUS
 62
     7
100
AcDbLine
 10
681.6110770446
 20
206.8258798085
 30
0.0
 11
681.8662876405
 21
206.8258798085
 31
0.0
  0
LINE
  5
155
330
11C
100
AcDbEntity
  8
RUBBERLEG_DESKTO
  6
CONTINUOUS
 62
     7
100
AcDbLine
 10
680.6110770446
 20
205.8258798085
 30
0.0
 11
680.6110770446
 21
202.3258798085
 31
0.0
  0
LINE
  5
156
330
11C
100
AcDbEntity
  8
RUBBERLEG_DESKTO
  6
CONTINUOUS
 62
     7
100
AcDbLine
 10
695.1110770446
 20
204.3376099877
 30
0.0
 11
695.1110770446
 21
202.3258798085
 31
0.0
  0
LINE
  5
157
330
11C
100
AcDbEntity
  8
RUBBERLEG_DESKTO
  6
CONTINUOUS
 62
     7
100
AcDbLine
 10
693.1110770446
 20
200.3258798085
 30
0.0
 11
682.6110770446
 21
200.3258798085
 31
0.0
  0
ARC
  5
158
330
11C
100
AcDbEntity
  8
RUBBERLEG_DESKTO
  6
CONTINUOUS
 62
     7
100
AcDbCircle
 10
682.6110770446
 20
202.3258798085
 30
0.0
 40
2.000000000000002
100
AcDbArc
 50
180.0
 51
270.0
  0
ARC
  5
159
330
11C
100
AcDbEntity
  8
RUBBERLEG_DESKTO
  6
CONTINUOUS
 62
     7
100
AcDbCircle
 10
693.1110770446
 20
202.3258798085
 30
0.0
 40
2.000000000000002
100
AcDbArc
 50
270.0
 51
0.0
  0
ARC
  5
15A
330
11C
100
AcDbEntity
  8
RUBBERLEG_DESKTO
  6
CONTINUOUS
 62
     7
100
AcDbCircle
 10
681.6110770446
 20
205.8258798085
 30
0.0
 40
1.000000000000001
100
AcDbArc
 50
90.0
 51
180.0
  0
ARC
  5
15B
330
11C
100
AcDbEntity
  8
RUBBERLEG_DESKTO
  6
CONTINUOUS
 62
     7
100
AcDbCircle
 10
681.8662876405
 20
206.3258798085
 30
0.0
 40
0.5000000000000003
100
AcDbArc
 50
44.7249131549
 51
90.0
  0
LINE
  5
15C
330
11C
100
AcDbEntity
  8
RUBBERLEG_DESKTO
  6
CONTINUOUS
 62
     7
100
AcDbLine
 10
930.6735770446
 20
206.8258798085
 30
0.0
 11
932.4413439976
 21
206.8258798085
 31
0.0
  0
LINE
  5
15D
330
11C
100
AcDbEntity
  8
RUBBERLEG_DESKTO
  6
CONTINUOUS
 62
     7
100
AcDbLine
 10
903.4058100917
 20
206.8258798085
 30
0.0
 11
905.1735770446
 21
206.8258798085
 31
0.0
  0
LINE
  5
15E
330
11C
100
AcDbEntity
  8
RUBBERLEG_DESKTO
  6
CONTINUOUS
 62
     7
100
AcDbLine
 10
905.1735770446
 20
206.8258798085
 30
0.0
 11
930.6735770446
 21
206.8258798085
 31
0.0
  0
LINE
  5
15F
330
11C
100
AcDbEntity
  8
RUBBERLEG_DESKTO
  6
CONTINUOUS
 62
     7
100
AcDbLine
 10
930.6735770446
 20
200.3258798085
 30
0.0
 11
905.1735770446
 21
200.3258798085
 31
0.0
  0
LINE
  5
160
330
11C
100
AcDbEntity
  8
RUBBERLEG_DESKTO
  6
CONTINUOUS
 62
     7
100
AcDbLine
 10
905.1735770446
 20
200.3258798085
 30
0.0
 11
899.9235770446
 21
200.3258798085
 31
0.0
  0
LINE
  5
161
330
11C
100
AcDbEntity
  8
RUBBERLEG_DESKTO
  6
CONTINUOUS
 62
     7
100
AcDbLine
 10
930.6735770446
 20
200.3258798085
 30
0.0
 11
935.9235770446
 21
200.3258798085
 31
0.0
  0
ARC
  5
162
330
11C
100
AcDbEntity
  8
RUBBERLEG_DESKTO
  6
CONTINUOUS
 62
     7
100
AcDbCircle
 10
932.5117241556
 20
203.3688519098
 30
0.0
 40
3.457744244375579
100
AcDbArc
 50
84.890327149
 51
91.1662992472
  0
ARC
  5
163
330
11C
100
AcDbEntity
  8
RUBBERLEG_DESKTO
  6
CONTINUOUS
 62
     7
100
AcDbCircle
 10
903.3299711778
 20
203.3825167126
 30
0.0
 40
3.444198157933448
100
AcDbArc
 50
88.7382837172
 51
94.9990012515
  0
LINE
  5
164
330
11C
100
AcDbEntity
  8
RUBBERLEG_DESKTO
  6
CONTINUOUS
 62
     7
100
AcDbLine
 10
937.9235770446
 20
202.3258798085
 30
0.0
 11
937.9235770446
 21
203.8267103345
 31
0.0
  0
LINE
  5
165
330
11C
100
AcDbEntity
  8
RUBBERLEG_DESKTO
  6
CONTINUOUS
 62
     7
100
AcDbLine
 10
897.9235770446
 20
203.8267103345
 30
0.0
 11
897.9235770446
 21
202.3258798085
 31
0.0
  0
ARC
  5
166
330
11C
100
AcDbEntity
  8
RUBBERLEG_DESKTO
  6
CONTINUOUS
 62
     7
100
AcDbCircle
 10
935.9235770446
 20
202.3258798085
 30
0.0
 40
2.000000000000002
100
AcDbArc
 50
270.0
 51
0.0
  0
ARC
  5
167
330
11C
100
AcDbEntity
  8
RUBBERLEG_DESKTO
  6
CONTINUOUS
 62
     7
100
AcDbCircle
 10
899.9235770446
 20
202.3258798085
 30
0.0
 40
1.999999999999988
100
AcDbArc
 50
180.0
 51
270.0
  0
ARC
  5
168
330
11C
100
AcDbEntity
  8
RUBBERLEG_DESKTO
  6
CONTINUOUS
 62
     7
100
AcDbCircle
 10
903.2752231473
 20
201.705172652
 30
0.0
 40
5.110256091670586
100
AcDbArc
 50
92.1830551286
 51
117.4742763854
  0
ARC
  5
169
330
11C
100
AcDbEntity
  8
RUBBERLEG_DESKTO
  6
CONTINUOUS
 62
     7
100
AcDbCircle
 10
916.3722310278
 20
181.8905078869
 30
0.0
 40
28.84043015201704
100
AcDbArc
 50
122.3627471914
 51
129.3893747194
  0
ARC
  5
16A
330
11C
100
AcDbEntity
  8
RUBBERLEG_DESKTO
  6
CONTINUOUS
 62
     7
100
AcDbCircle
 10
898.4237924383
 20
203.8257902005
 30
0.0
 40
0.5002153239960149
100
AcDbArc
 50
135.0098240714
 51
179.9897286903
  0
ARC
  5
16B
330
11C
100
AcDbEntity
  8
RUBBERLEG_DESKTO
  6
CONTINUOUS
 62
     7
100
AcDbCircle
 10
932.5706393567
 20
201.7007854817
 30
0.0
 40
5.114744416968358
100
AcDbArc
 50
62.5355602152
 51
87.7918403131
  0
ARC
  5
16C
330
11C
100
AcDbEntity
  8
RUBBERLEG_DESKTO
  6
CONTINUOUS
 62
     7
100
AcDbCircle
 10
937.4233616509
 20
203.8257902005
 30
0.0
 40
0.5002153239964741
100
AcDbArc
 50
0.0102713097
 51
44.9901759285
  0
ARC
  5
16D
330
11C
100
AcDbEntity
  8
RUBBERLEG_DESKTO
  6
CONTINUOUS
 62
     7
100
AcDbCircle
 10
919.4839413834
 20
181.9046493513
 30
0.0
 40
28.82365788780961
100
AcDbArc
 50
50.6042076227
 51
57.6373481249
  0
LINE
  5
16E
330
11C
100
AcDbEntity
  8
BRACKET_DESKTOP_
  6
HIDDEN2
 62
     7
100
AcDbLine
 10
836.3415841863
 20
387.2398169188
 30
0.0
 11
837.1283229989
 21
393.6472903577
 31
0.0
  0
LINE
  5
16F
330
11C
100
AcDbEntity
  8
BRACKET_DESKTOP_
  6
HIDDEN2
 62
     7
100
AcDbLine
 10
837.3341303379
 20
387.1179475754
 30
0.0
 11
838.0653463983
 21
393.0732244853
 31
0.0
  0
LINE
  5
170
330
11C
100
AcDbEntity
  8
BRACKET_DESKTOP_
  6
HIDDEN2
 62
     7
100
AcDbLine
 10
861.50219168
 20
592.1565206859
 30
0.0
 11
860.7154528673
 21
585.7490472471
 31
0.0
  0
LINE
  5
171
330
11C
100
AcDbEntity
  8
BRACKET_DESKTOP_
  6
HIDDEN2
 62
     7
100
AcDbLine
 10
861.7079990189
 20
585.6271779037
 30
0.0
 11
862.4392150794
 21
591.5824548135
 31
0.0
  0
LINE
  5
172
330
11C
100
AcDbEntity
  8
BRACKET_DESKTOP_
  6
HIDDEN2
 62
     7
100
AcDbLine
 10
838.4349809044
 20
371.4671288099
 30
0.0
 11
842.0179396005
 21
400.6479856682
 31
0.0
  0
LINE
  5
173
330
11C
100
AcDbEntity
  8
BRACKET_DESKTOP_
  6
CONTINUOUS
 62
     7
100
AcDbLine
 10
839.427527056
 20
371.3452594665
 30
0.0
 11
843.0104857521
 21
400.5261163248
 31
0.0
  0
LINE
  5
174
330
11C
100
AcDbEntity
  8
BRACKET_DESKTOP_
  6
CONTINUOUS
 62
     7
100
AcDbLine
 10
863.9720128178
 20
571.2440544071
 30
0.0
 11
863.728274131
 21
569.2589621038
 31
0.0
  0
LINE
  5
175
330
11C
100
AcDbEntity
  8
BRACKET_DESKTOP_
  6
CONTINUOUS
 62
     7
100
AcDbLine
 10
843.2542244389
 20
402.5112086281
 30
0.0
 11
863.728274131
 21
569.2589621038
 31
0.0
  0
LINE
  5
176
330
11C
100
AcDbEntity
  8
BRACKET_DESKTOP_
  6
CONTINUOUS
 62
     7
100
AcDbLine
 10
843.2542244389
 20
402.5112086281
 30
0.0
 11
843.0104857521
 21
400.5261163248
 31
0.0
  0
LINE
  5
177
330
11C
100
AcDbEntity
  8
BRACKET_DESKTOP_
  6
CONTINUOUS
 62
     7
100
AcDbLine
 10
863.9720128178
 20
571.2440544071
 30
0.0
 11
867.5549715139
 21
600.4249112653
 31
0.0
  0
LINE
  5
178
330
11C
100
AcDbEntity
  8
BRACKET_DESKTOP_
  6
HIDDEN2
 62
     7
100
AcDbLine
 10
842.2616782873
 20
402.6330779715
 30
0.0
 11
862.7357279794
 21
569.3808314472
 31
0.0
  0
LINE
  5
179
330
11C
100
AcDbEntity
  8
BRACKET_DESKTOP_
  6
HIDDEN2
 62
     7
100
AcDbLine
 10
862.7357279794
 20
569.3808314472
 30
0.0
 11
862.9794666662
 21
571.3659237505
 31
0.0
  0
LINE
  5
17A
330
11C
100
AcDbEntity
  8
BRACKET_DESKTOP_
  6
HIDDEN2
 62
     7
100
AcDbLine
 10
866.5136776249
 20
600.1497621481
 30
0.0
 11
866.5624253623
 21
600.5467806088
 31
0.0
  0
LINE
  5
17B
330
11C
100
AcDbEntity
  8
BRACKET_DESKTOP_
  6
HIDDEN2
 62
     7
100
AcDbLine
 10
842.0179396005
 20
400.6479856682
 30
0.0
 11
842.2616782873
 21
402.6330779715
 31
0.0
  0
ARC
  5
17C
330
11C
100
AcDbEntity
  8
BRACKET_DESKTOP_
  6
HIDDEN2
 62
     7
100
AcDbCircle
 10
866.4631707471
 20
600.5589675431
 30
0.0
 40
0.1000000000000342
100
AcDbArc
 50
353.000000001
 51
83.0
  0
ARC
  5
17D
330
11C
100
AcDbEntity
  8
BRACKET_DESKTOP_
  6
CONTINUOUS
 62
     7
100
AcDbCircle
 10
866.4631707471
 20
600.5589675431
 30
0.0
 40
1.100000000000001
100
AcDbArc
 50
353.0
 51
20.5801992034
  0
ARC
  5
17E
330
11C
100
AcDbEntity
  8
BRACKET_DESKTOP_
  6
HIDDEN2
 62
     7
100
AcDbCircle
 10
866.4631707471
 20
600.5589675431
 30
0.0
 40
1.100000000000001
100
AcDbArc
 50
20.5801992034
 51
83.0
  0
LINE
  5
17F
330
11C
100
AcDbEntity
  8
BRACKET_DESKTOP_
  6
HIDDEN2
 62
     7
100
AcDbLine
 10
852.3045624412
 20
603.4056868549
 30
0.0
 11
866.5972270249
 21
601.6507683099
 31
0.0
  0
LINE
  5
180
330
11C
100
AcDbEntity
  8
BRACKET_DESKTOP_
  6
HIDDEN2
 62
     7
100
AcDbLine
 10
852.3045624412
 20
603.4056868549
 30
0.0
 11
852.1826930978
 21
602.4131407033
 31
0.0
  0
LINE
  5
181
330
11C
100
AcDbEntity
  8
BRACKET_DESKTOP_
  6
HIDDEN2
 62
     7
100
AcDbLine
 10
852.1826930978
 20
602.4131407033
 30
0.0
 11
866.4753576815
 21
600.6582221583
 31
0.0
  0
ARC
  5
182
330
11C
100
AcDbEntity
  8
BRACKET_DESKTOP_
  6
HIDDEN2
 62
     7
100
AcDbCircle
 10
838.3357262892
 20
371.4793157443
 30
0.0
 40
0.1000000000000041
100
AcDbArc
 50
263.0
 51
353.0
  0
ARC
  5
183
330
11C
100
AcDbEntity
  8
BRACKET_DESKTOP_
  6
HIDDEN2
 62
     7
100
AcDbCircle
 10
838.3357262892
 20
371.4793157443
 30
0.0
 40
1.100000000000001
100
AcDbArc
 50
263.0
 51
325.4198007965
  0
ARC
  5
184
330
11C
100
AcDbEntity
  8
BRACKET_DESKTOP_
  6
CONTINUOUS
 62
     7
100
AcDbCircle
 10
838.3357262892
 20
371.4793157443
 30
0.0
 40
1.100000000000001
100
AcDbArc
 50
325.4198007965
 51
353.0
  0
LINE
  5
185
330
11C
100
AcDbEntity
  8
BRACKET_DESKTOP_
  6
HIDDEN2
 62
     7
100
AcDbLine
 10
838.3235393549
 20
371.3800611291
 30
0.0
 11
824.0308747712
 21
373.1349796741
 31
0.0
  0
LINE
  5
186
330
11C
100
AcDbEntity
  8
BRACKET_DESKTOP_
  6
HIDDEN2
 62
     7
100
AcDbLine
 10
823.9090054278
 20
372.1424335225
 30
0.0
 11
824.0308747712
 21
373.1349796741
 31
0.0
  0
LINE
  5
187
330
11C
100
AcDbEntity
  8
BRACKET_DESKTOP_
  6
HIDDEN2
 62
     7
100
AcDbLine
 10
838.2016700115
 20
370.3875149775
 30
0.0
 11
823.9090054278
 21
372.1424335225
 31
0.0
  0
LINE
  5
188
330
11C
100
AcDbEntity
  8
BRACKET_DESKTOP_
  6
HIDDEN2
 62
     7
100
AcDbLine
 10
860.7154528673
 20
585.7490472471
 30
0.0
 11
859.9287140546
 21
579.3415738083
 31
0.0
  0
LINE
  5
189
330
11C
100
AcDbEntity
  8
BRACKET_DESKTOP_
  6
HIDDEN2
 62
     7
100
AcDbLine
 10
861.7079990189
 20
585.6271779037
 30
0.0
 11
860.9767829585
 21
579.6719009938
 31
0.0
  0
LINE
  5
18A
330
11C
100
AcDbEntity
  8
BRACKET_DESKTOP_
  6
HIDDEN2
 62
     7
100
AcDbLine
 10
836.3415841863
 20
387.2398169188
 30
0.0
 11
835.5548453736
 21
380.83234348
 31
0.0
  0
LINE
  5
18B
330
11C
100
AcDbEntity
  8
BRACKET_DESKTOP_
  6
HIDDEN2
 62
     7
100
AcDbLine
 10
837.3341303379
 20
387.1179475754
 30
0.0
 11
836.6029142775
 21
381.1626706656
 31
0.0
  0
LINE
  5
18C
330
11C
100
AcDbEntity
  8
BRACKET_DESKTOP_
  6
CONTINUOUS
 62
     7
100
AcDbLine
 10
843.0104857521
 20
400.5261163248
 30
0.0
 11
842.8864174832
 21
400.5413499927
 31
0.0
  0
LINE
  5
18D
330
11C
100
AcDbEntity
  8
BRACKET_DESKTOP_
  6
CONTINUOUS
 62
     7
100
AcDbLine
 10
863.8479445489
 20
571.259288075
 30
0.0
 11
863.9720128178
 21
571.2440544071
 31
0.0
  0
ARC
  5
18E
330
11C
100
AcDbEntity
  8
BRACKET_DESKTOP_
  6
HIDDEN2
 62
     7
100
AcDbCircle
 10
841.2312007878
 20
394.2405122294
 30
0.0
 40
0.9999999999999961
100
AcDbArc
 50
273.0
 51
353.0
  0
ARC
  5
18F
330
11C
100
AcDbEntity
  8
BRACKET_DESKTOP_
  6
HIDDEN2
 62
     7
100
AcDbCircle
 10
838.1208691506
 20
393.5254210143
 30
0.0
 40
1.000000000000002
100
AcDbArc
 50
93.0
 51
173.0
  0
ARC
  5
190
330
11C
100
AcDbEntity
  8
BRACKET_DESKTOP_
  6
HIDDEN2
 62
     7
100
AcDbCircle
 10
838.2420073728
 20
378.1009945657
 30
0.0
 40
0.9999999999999954
100
AcDbArc
 50
353.0
 51
73.0
  0
LINE
  5
191
330
11C
100
AcDbEntity
  8
BRACKET_DESKTOP_
  6
HIDDEN2
 62
     7
100
AcDbLine
 10
835.9150414843
 20
383.7659053881
 30
0.0
 11
836.907587636
 21
383.6440360447
 31
0.0
  0
LINE
  5
192
330
11C
100
AcDbEntity
  8
BRACKET_DESKTOP_
  6
HIDDEN2
 62
     7
100
AcDbLine
 10
841.2835367441
 20
393.2418826946
 30
0.0
 11
838.0653463983
 21
393.0732244853
 31
0.0
  0
LINE
  5
193
330
11C
100
AcDbEntity
  8
BRACKET_DESKTOP_
  6
HIDDEN2
 62
     7
100
AcDbLine
 10
840.4487738658
 20
394.6487936768
 30
0.0
 11
838.0685331943
 21
394.524050549
 31
0.0
  0
ARC
  5
194
330
11C
100
AcDbEntity
  8
BRACKET_DESKTOP_
  6
HIDDEN2
 62
     7
100
AcDbCircle
 10
865.6050694688
 20
592.7497425576
 30
0.0
 40
1.000000000000003
100
AcDbArc
 50
273.0
 51
353.0
  0
ARC
  5
195
330
11C
100
AcDbEntity
  8
BRACKET_DESKTOP_
  6
HIDDEN2
 62
     7
100
AcDbCircle
 10
862.4947378316
 20
592.0346513425
 30
0.0
 40
0.9999999999999792
100
AcDbArc
 50
93.0
 51
173.0
  0
ARC
  5
196
330
11C
100
AcDbEntity
  8
BRACKET_DESKTOP_
  6
HIDDEN2
 62
     7
100
AcDbCircle
 10
862.6158760539
 20
576.610224894
 30
0.0
 40
0.999999999999333
100
AcDbArc
 50
353.0
 51
73.0
  0
LINE
  5
197
330
11C
100
AcDbEntity
  8
BRACKET_DESKTOP_
  6
HIDDEN2
 62
     7
100
AcDbLine
 10
860.2889101654
 20
582.2751357164
 30
0.0
 11
861.281456317
 21
582.1532663729
 31
0.0
  0
LINE
  5
198
330
11C
100
AcDbEntity
  8
BRACKET_DESKTOP_
  6
HIDDEN2
 62
     7
100
AcDbLine
 10
865.6574054251
 20
591.7511130229
 30
0.0
 11
862.4392150794
 21
591.5824548135
 31
0.0
  0
LINE
  5
199
330
11C
100
AcDbEntity
  8
BRACKET_DESKTOP_
  6
HIDDEN2
 62
     7
100
AcDbLine
 10
864.8226425468
 20
593.158024005
 30
0.0
 11
862.4424018754
 21
593.0332808773
 31
0.0
  0
LINE
  5
19A
330
11C
100
AcDbEntity
  8
BRACKET_DESKTOP_
  6
HIDDEN2
 62
     7
100
AcDbLine
 10
860.6288885015
 20
578.2633997089
 30
0.0
 11
862.9082477586
 21
577.5665296499
 31
0.0
  0
LINE
  5
19B
330
11C
100
AcDbEntity
  8
BRACKET_DESKTOP_
  6
HIDDEN2
 62
     7
100
AcDbLine
 10
860.9767829585
 20
579.6719009938
 30
0.0
 11
864.0585771836
 21
578.7297019453
 31
0.0
  0
LINE
  5
19C
330
11C
100
AcDbEntity
  8
BRACKET_DESKTOP_
  6
HIDDEN2
 62
     7
100
AcDbLine
 10
862.1345417208
 20
589.1010894344
 30
0.0
 11
861.1419955692
 21
589.2229587778
 31
0.0
  0
ARC
  5
19D
330
11C
100
AcDbEntity
  8
BRACKET_DESKTOP_
  6
HIDDEN2
 62
     7
100
AcDbCircle
 10
864.7703065905
 20
594.1566535398
 30
0.0
 40
1.000000000000053
100
AcDbArc
 50
273.0
 51
353.0
  0
ARC
  5
19E
330
11C
100
AcDbEntity
  8
BRACKET_DESKTOP_
  6
HIDDEN2
 62
     7
100
AcDbCircle
 10
860.9212602062
 20
579.2197044649
 30
0.0
 40
1.000000000000025
100
AcDbArc
 50
173.0
 51
253.0
  0
ARC
  5
19F
330
11C
100
AcDbEntity
  8
BRACKET_DESKTOP_
  6
HIDDEN2
 62
     7
100
AcDbCircle
 10
863.7662054789
 20
577.7733971893
 30
0.0
 40
1.000000000000195
100
AcDbArc
 50
353.0
 51
73.0
  0
LINE
  5
1A0
330
11C
100
AcDbEntity
  8
BRACKET_DESKTOP_
  6
HIDDEN2
 62
     7
100
AcDbLine
 10
836.2550198205
 20
379.7541693806
 30
0.0
 11
838.5343790776
 21
379.0572993217
 31
0.0
  0
LINE
  5
1A1
330
11C
100
AcDbEntity
  8
BRACKET_DESKTOP_
  6
HIDDEN2
 62
     7
100
AcDbLine
 10
836.6029142775
 20
381.1626706656
 30
0.0
 11
839.6847085026
 21
380.220471617
 31
0.0
  0
LINE
  5
1A2
330
11C
100
AcDbEntity
  8
BRACKET_DESKTOP_
  6
HIDDEN2
 62
     7
100
AcDbLine
 10
837.7606730398
 20
390.5918591062
 30
0.0
 11
836.7681268882
 21
390.7137284496
 31
0.0
  0
ARC
  5
1A3
330
11C
100
AcDbEntity
  8
BRACKET_DESKTOP_
  6
HIDDEN2
 62
     7
100
AcDbCircle
 10
840.3964379095
 20
395.6474232115
 30
0.0
 40
0.9999999999999979
100
AcDbArc
 50
273.0
 51
353.0
  0
ARC
  5
1A4
330
11C
100
AcDbEntity
  8
BRACKET_DESKTOP_
  6
HIDDEN2
 62
     7
100
AcDbCircle
 10
836.5473915252
 20
380.7104741366
 30
0.0
 40
1.000000000000025
100
AcDbArc
 50
173.0
 51
253.0
  0
ARC
  5
1A5
330
11C
100
AcDbEntity
  8
BRACKET_DESKTOP_
  6
HIDDEN2
 62
     7
100
AcDbCircle
 10
839.3923367978
 20
379.2641668611
 30
0.0
 40
1.000000000000018
100
AcDbArc
 50
353.0
 51
73.0
  0
LINE
  5
1A7
330
11C
100
AcDbEntity
  8
NAMEDECAL_DESKTO
  6
CONTINUOUS
 62
     7
100
AcDbLine
 10
840.0020721105
 20
375.2040025236
 30
0.0
 11
839.9028174953
 21
375.2161894579
 31
0.0
  0
LINE
  5
1A8
330
11C
100
AcDbEntity
  8
NAMEDECAL_DESKTO
  6
CONTINUOUS
 62
     7
100
AcDbLine
 10
842.2566549635
 20
393.566106329
 30
0.0
 11
840.1848761256
 21
376.6928217511
 31
0.0
  0
LINE
  5
1A9
330
11C
100
AcDbEntity
  8
NAMEDECAL_DESKTO
  6
CONTINUOUS
 62
     7
100
AcDbLine
 10
842.4394589786
 20
395.0549255564
 30
0.0
 11
842.2566549635
 21
393.566106329
 31
0.0
  0
LINE
  5
1AA
330
11C
100
AcDbEntity
  8
NAMEDECAL_DESKTO
  6
CONTINUOUS
 62
     7
100
AcDbLine
 10
840.1848761256
 20
376.6928217511
 30
0.0
 11
840.0020721105
 21
375.2040025236
 31
0.0
  0
LINE
  5
1AB
330
11C
100
AcDbEntity
  8
NAMEDECAL_DESKTO
  6
CONTINUOUS
 62
     7
100
AcDbLine
 10
842.3402043634
 20
395.0671124908
 30
0.0
 11
842.4394589786
 21
395.0549255564
 31
0.0
  0
LINE
  5
1AD
330
11C
100
AcDbEntity
  8
DV2_デフォルト
  6
CENTER2
 62
     7
100
AcDbLine
 10
869.5331560442
 20
584.6663694343
 30
0.0
 11
840.1644333986
 21
588.2723951487
 31
0.0
  0
LINE
  5
1AE
330
11C
100
AcDbEntity
  8
DV2_デフォルト
  6
CENTER2
 62
     7
100
AcDbLine
 10
844.82994156
 20
386.1975776859
 30
0.0
 11
812.4386590919
 21
390.1747270808
 31
0.0
  0
LINE
  5
1AF
330
11C
100
AcDbEntity
  8
DV2_デフォルト
  6
CONTINUOUS
 62
     7
100
AcDbLine
 10
758.9235770446
 20
200.3258798085
 30
0.0
 11
897.9235770446
 21
200.3258798085
 31
0.0
  0
LINE
  5
1B0
330
11C
100
AcDbEntity
  8
DV2_デフォルト
  6
CONTINUOUS
 62
     7
100
AcDbLine
 10
695.1110770446
 20
200.3258798085
 30
0.0
 11
718.9235770446
 21
200.3258798085
 31
0.0
  0
ENDBLK
  5
1B2
330
11C
100
AcDbEntity
  8
0
100
AcDbBlockEnd
  0
BLOCK
  5
1DE
330
1B3
100
AcDbEntity
  8
0
100
AcDbBlockBegin
  2
GDIMGGROUP
 70
     0
 10
0.0
 20
0.0
 30
0.0
  3
GDIMGGROUP
  1

  0
POLYLINE
  5
1B5
330
1B3
100
AcDbEntity
  8
DEFAULT
  6
CONTINUOUS
 62
   136
100
AcDb2dPolyline
 66
     1
 10
0.0
 20
0.0
 30
0.0
  0
VERTEX
  5
221
330
1B5
100
AcDbEntity
  8
DEFAULT
  6
CONTINUOUS
 62
   136
100
AcDbVertex
100
AcDb2dVertex
 10
195.4244318424
 20
706.502976751
 30
0.0
  0
VERTEX
  5
222
330
1B5
100
AcDbEntity
  8
DEFAULT
  6
CONTINUOUS
 62
   136
100
AcDbVertex
100
AcDb2dVertex
 10
185.4244320659
 20
708.1696433804
 30
0.0
  0
VERTEX
  5
223
330
1B5
100
AcDbEntity
  8
DEFAULT
  6
CONTINUOUS
 62
   136
100
AcDbVertex
100
AcDb2dVertex
 10
195.4244318424
 20
709.8363100099
 30
0.0
  0
SEQEND
  5
224
330
1B5
100
AcDbEntity
  8
DEFAULT
  6
CONTINUOUS
 62
   136
  0
POLYLINE
  5
1B6
330
1B3
100
AcDbEntity
  8
DEFAULT
  6
CONTINUOUS
 62
   136
100
AcDb2dPolyline
 66
     1
 10
0.0
 20
0.0
 30
0.0
  0
VERTEX
  5
225
330
1B6
100
AcDbEntity
  8
DEFAULT
  6
CONTINUOUS
 62
   136
100
AcDbVertex
100
AcDb2dVertex
 10
535.4244465946
 20
706.502976751
 30
0.0
  0
VERTEX
  5
226
330
1B6
100
AcDbEntity
  8
DEFAULT
  6
CONTINUOUS
 62
   136
100
AcDbVertex
100
AcDb2dVertex
 10
545.424446371
 20
708.1696433804
 30
0.0
  0
VERTEX
  5
227
330
1B6
100
AcDbEntity
  8
DEFAULT
  6
CONTINUOUS
 62
   136
100
AcDbVertex
100
AcDb2dVertex
 10
535.4244465946
 20
709.8363100099
 30
0.0
  0
SEQEND
  5
228
330
1B6
100
AcDbEntity
  8
DEFAULT
  6
CONTINUOUS
 62
   136
  0
LINE
  5
1B7
330
1B3
100
AcDbEntity
  8
DEFAULT
  6
CONTINUOUS
 62
   136
100
AcDbLine
 10
185.4244320659
 20
639.5073124066
 30
0.0
 11
185.4244320659
 21
713.1696432687
 31
0.0
  0
LINE
  5
1B8
330
1B3
100
AcDbEntity
  8
DEFAULT
  6
CONTINUOUS
 62
   136
100
AcDbLine
 10
545.4244320659
 20
639.5073124066
 30
0.0
 11
545.4244320659
 21
713.1696432687
 31
0.0
  0
LINE
  5
1B9
330
1B3
100
AcDbEntity
  8
DEFAULT
  6
CONTINUOUS
 62
   136
100
AcDbLine
 10
185.4244320659
 20
708.1696433804
 30
0.0
 11
545.424446371
 21
708.1696433804
 31
0.0
  0
TEXT
  5
1DD
330
1B3
100
AcDbEntity
  8
DEFAULT
  6
CONTINUOUS
 62
   136
100
AcDbText
 10
354.4488294624
 20
710.6696433804
 30
0.0
 40
10.0
  1
360
  7
SEACAD_SEANSI_TTF
 11
354.4488294624
 21
720.6696433804
 31
0.0
100
AcDbText
 73
     3
  0
ENDBLK
  5
1DF
330
1B3
100
AcDbEntity
  8
0
100
AcDbBlockEnd
  0
BLOCK
  5
1E8
330
1E0
100
AcDbEntity
  8
0
100
AcDbBlockBegin
  2
GDIMGGROUP1
 70
     0
 10
0.0
 20
0.0
 30
0.0
  3
GDIMGGROUP1
  1

  0
POLYLINE
  5
1E2
330
1E0
100
AcDbEntity
  8
DEFAULT
  6
CONTINUOUS
 62
   136
100
AcDb2dPolyline
 66
     1
 10
0.0
 20
0.0
 30
0.0
  0
VERTEX
  5
229
330
1E2
100
AcDbEntity
  8
DEFAULT
  6
CONTINUOUS
 62
   136
100
AcDbVertex
100
AcDb2dVertex
 10
275.4244318424
 20
655.1765231905
 30
0.0
  0
VERTEX
  5
22A
330
1E2
100
AcDbEntity
  8
DEFAULT
  6
CONTINUOUS
 62
   136
100
AcDbVertex
100
AcDb2dVertex
 10
265.4244320659
 20
656.8431898199
 30
0.0
  0
VERTEX
  5
22B
330
1E2
100
AcDbEntity
  8
DEFAULT
  6
CONTINUOUS
 62
   136
100
AcDbVertex
100
AcDb2dVertex
 10
275.4244318424
 20
658.5098564493
 30
0.0
  0
SEQEND
  5
22C
330
1E2
100
AcDbEntity
  8
DEFAULT
  6
CONTINUOUS
 62
   136
  0
POLYLINE
  5
1E3
330
1E0
100
AcDbEntity
  8
DEFAULT
  6
CONTINUOUS
 62
   136
100
AcDb2dPolyline
 66
     1
 10
0.0
 20
0.0
 30
0.0
  0
VERTEX
  5
22D
330
1E3
100
AcDbEntity
  8
DEFAULT
  6
CONTINUOUS
 62
   136
100
AcDbVertex
100
AcDb2dVertex
 10
455.4244352697
 20
655.1765231905
 30
0.0
  0
VERTEX
  5
22E
330
1E3
100
AcDbEntity
  8
DEFAULT
  6
CONTINUOUS
 62
   136
100
AcDbVertex
100
AcDb2dVertex
 10
465.4244350462
 20
656.8431898199
 30
0.0
  0
VERTEX
  5
22F
330
1E3
100
AcDbEntity
  8
DEFAULT
  6
CONTINUOUS
 62
   136
100
AcDbVertex
100
AcDb2dVertex
 10
455.4244352697
 20
658.5098564493
 30
0.0
  0
SEQEND
  5
230
330
1E3
100
AcDbEntity
  8
DEFAULT
  6
CONTINUOUS
 62
   136
  0
LINE
  5
1E4
330
1E0
100
AcDbEntity
  8
DEFAULT
  6
CONTINUOUS
 62
   136
100
AcDbLine
 10
265.4244320659
 20
591.0896102145
 30
0.0
 11
265.4244320659
 21
661.8431897082
 31
0.0
  0
LINE
  5
1E5
330
1E0
100
AcDbEntity
  8
DEFAULT
  6
CONTINUOUS
 62
   136
100
AcDbLine
 10
465.4244320659
 20
591.0896102145
 30
0.0
 11
465.4244320659
 21
661.8431897082
 31
0.0
  0
LINE
  5
1E6
330
1E0
100
AcDbEntity
  8
DEFAULT
  6
CONTINUOUS
 62
   136
100
AcDbLine
 10
265.4244320659
 20
656.8431898199
 30
0.0
 11
465.4244350462
 21
656.8431898199
 31
0.0
  0
TEXT
  5
1E7
330
1E0
100
AcDbEntity
  8
DEFAULT
  6
CONTINUOUS
 62
   136
100
AcDbText
 10
354.4488237999
 20
659.3431898199
 30
0.0
 40
10.0
  1
200
  7
SEACAD_SEANSI_TTF
 11
354.4488237999
 21
669.3431898199
 31
0.0
100
AcDbText
 73
     3
  0
ENDBLK
  5
1E9
330
1E0
100
AcDbEntity
  8
0
100
AcDbBlockEnd
  0
BLOCK
  5
1F2
330
1EA
100
AcDbEntity
  8
0
100
AcDbBlockBegin
  2
GDIMGGROUP2
 70
     0
 10
0.0
 20
0.0
 30
0.0
  3
GDIMGGROUP2
  1

  0
POLYLINE
  5
1EC
330
1EA
100
AcDbEntity
  8
DEFAULT
  6
CONTINUOUS
 62
   136
100
AcDb2dPolyline
 66
     1
 10
0.0
 20
0.0
 30
0.0
  0
VERTEX
  5
231
330
1EC
100
AcDbEntity
  8
DEFAULT
  6
CONTINUOUS
 62
   136
100
AcDbVertex
100
AcDb2dVertex
 10
794.8448840891
 20
583.7618380816
 30
0.0
  0
VERTEX
  5
232
330
1EC
100
AcDbEntity
  8
DEFAULT
  6
CONTINUOUS
 62
   136
100
AcDbVertex
100
AcDb2dVertex
 10
794.4093339468
 20
593.8904149439
 30
0.0
  0
VERTEX
  5
233
330
1EC
100
AcDbEntity
  8
DEFAULT
  6
CONTINUOUS
 62
   136
100
AcDbVertex
100
AcDb2dVertex
 10
791.5363969909
 20
584.1680692172
 30
0.0
  0
SEQEND
  5
234
330
1EC
100
AcDbEntity
  8
DEFAULT
  6
CONTINUOUS
 62
   136
  0
POLYLINE
  5
1ED
330
1EA
100
AcDbEntity
  8
DEFAULT
  6
CONTINUOUS
 62
   136
100
AcDb2dPolyline
 66
     1
 10
0.0
 20
0.0
 30
0.0
  0
VERTEX
  5
235
330
1ED
100
AcDbEntity
  8
DEFAULT
  6
CONTINUOUS
 62
   136
100
AcDbVertex
100
AcDb2dVertex
 10
772.9084018585
 20
405.1035273844
 30
0.0
  0
VERTEX
  5
236
330
1ED
100
AcDbEntity
  8
DEFAULT
  6
CONTINUOUS
 62
   136
100
AcDbVertex
100
AcDb2dVertex
 10
770.0354649026
 20
395.3811816576
 30
0.0
  0
VERTEX
  5
237
330
1ED
100
AcDbEntity
  8
DEFAULT
  6
CONTINUOUS
 62
   136
100
AcDbVertex
100
AcDb2dVertex
 10
769.5999147603
 20
405.50975852
 30
0.0
  0
SEQEND
  5
238
330
1ED
100
AcDbEntity
  8
DEFAULT
  6
CONTINUOUS
 62
   136
  0
LINE
  5
1EE
330
1EA
100
AcDbEntity
  8
DEFAULT
  6
CONTINUOUS
 62
   136
100
AcDbLine
 10
837.9831045694
 20
588.5402286511
 30
0.0
 11
789.4466032996
 21
594.4997616473
 31
0.0
  0
LINE
  5
1EF
330
1EA
100
AcDbEntity
  8
DEFAULT
  6
CONTINUOUS
 62
   136
100
AcDbLine
 10
810.6250356916
 20
390.3974120337
 30
0.0
 11
765.0727346185
 21
395.9905313191
 31
0.0
  0
LINE
  5
1F0
330
1EA
100
AcDbEntity
  8
DEFAULT
  6
CONTINUOUS
 62
   136
100
AcDbLine
 10
794.4093339468
 20
593.8904149439
 30
0.0
 11
770.0354649026
 21
395.3811816576
 31
0.0
  0
TEXT
  5
1F1
330
1EA
100
AcDbEntity
  8
DEFAULT
  6
CONTINUOUS
 62
   136
100
AcDbText
 10
778.4034436912
 20
484.046672434
 30
0.0
 40
10.0
  1
200
 50
83.0
  7
SEACAD_SEANSI_TTF
 11
768.4779821748
 21
485.265365868
 31
0.0
100
AcDbText
 73
     3
  0
ENDBLK
  5
1F3
330
1EA
100
AcDbEntity
  8
0
100
AcDbBlockEnd
  0
BLOCK
  5
1FB
330
1F4
100
AcDbEntity
  8
0
100
AcDbBlockBegin
  2
GDIMGGROUP3
 70
     0
 10
0.0
 20
0.0
 30
0.0
  3
GDIMGGROUP3
  1

  0
POLYLINE
  5
1F6
330
1F4
100
AcDbEntity
  8
DEFAULT
  6
CONTINUOUS
 62
   136
100
AcDb2dPolyline
 66
     1
 10
0.0
 20
0.0
 30
0.0
  0
VERTEX
  5
239
330
1F6
100
AcDbEntity
  8
DEFAULT
  6
CONTINUOUS
 62
   136
100
AcDbVertex
100
AcDb2dVertex
 10
689.9235768211
 20
276.7333937226
 30
0.0
  0
VERTEX
  5
23A
330
1F6
100
AcDbEntity
  8
DEFAULT
  6
CONTINUOUS
 62
   136
100
AcDbVertex
100
AcDb2dVertex
 10
679.9235770446
 20
278.400060352
 30
0.0
  0
VERTEX
  5
23B
330
1F6
100
AcDbEntity
  8
DEFAULT
  6
CONTINUOUS
 62
   136
100
AcDbVertex
100
AcDb2dVertex
 10
689.9235768211
 20
280.0667269814
 30
0.0
  0
SEQEND
  5
23C
330
1F6
100
AcDbEntity
  8
DEFAULT
  6
CONTINUOUS
 62
   136
  0
POLYLINE
  5
1F7
330
1F4
100
AcDbEntity
  8
DEFAULT
  6
CONTINUOUS
 62
   136
100
AcDb2dPolyline
 66
     1
 10
0.0
 20
0.0
 30
0.0
  0
VERTEX
  5
23D
330
1F7
100
AcDbEntity
  8
DEFAULT
  6
CONTINUOUS
 62
   136
100
AcDbVertex
100
AcDb2dVertex
 10
811.9280522657
 20
276.7333937226
 30
0.0
  0
VERTEX
  5
23E
330
1F7
100
AcDbEntity
  8
DEFAULT
  6
CONTINUOUS
 62
   136
100
AcDbVertex
100
AcDb2dVertex
 10
821.9280520421
 20
278.400060352
 30
0.0
  0
VERTEX
  5
23F
330
1F7
100
AcDbEntity
  8
DEFAULT
  6
CONTINUOUS
 62
   136
100
AcDbVertex
100
AcDb2dVertex
 10
811.9280522657
 20
280.0667269814
 30
0.0
  0
SEQEND
  5
240
330
1F7
100
AcDbEntity
  8
DEFAULT
  6
CONTINUOUS
 62
   136
  0
LINE
  5
1F8
330
1F4
100
AcDbEntity
  8
DEFAULT
  6
CONTINUOUS
 62
   136
100
AcDbLine
 10
679.9235770446
 20
216.2633799985
 30
0.0
 11
679.9235770446
 21
283.4000602402
 31
0.0
  0
LINE
  5
1F9
330
1F4
100
AcDbEntity
  8
DEFAULT
  6
CONTINUOUS
 62
   136
100
AcDbLine
 10
679.9235770446
 20
278.400060352
 30
0.0
 11
821.9280520421
 21
278.400060352
 31
0.0
  0
TEXT
  5
1FA
330
1F4
100
AcDbEntity
  8
DEFAULT
  6
CONTINUOUS
 62
   136
100
AcDbText
 10
739.9502047873
 20
280.900060352
 30
0.0
 40
10.0
  1
142
  7
SEACAD_SEANSI_TTF
 11
739.9502047873
 21
290.900060352
 31
0.0
100
AcDbText
 73
     3
  0
ENDBLK
  5
1FC
330
1F4
100
AcDbEntity
  8
0
100
AcDbBlockEnd
  0
BLOCK
  5
205
330
1FD
100
AcDbEntity
  8
0
100
AcDbBlockBegin
  2
GDIMGGROUP4
 70
     0
 10
0.0
 20
0.0
 30
0.0
  3
GDIMGGROUP4
  1

  0
POLYLINE
  5
1FF
330
1FD
100
AcDbEntity
  8
DEFAULT
  6
CONTINUOUS
 62
   136
100
AcDb2dPolyline
 66
     1
 10
0.0
 20
0.0
 30
0.0
  0
VERTEX
  5
241
330
1FF
100
AcDbEntity
  8
DEFAULT
  6
CONTINUOUS
 62
   136
100
AcDbVertex
100
AcDb2dVertex
 10
689.9235768211
 20
162.8583318281
 30
0.0
  0
VERTEX
  5
242
330
1FF
100
AcDbEntity
  8
DEFAULT
  6
CONTINUOUS
 62
   136
100
AcDbVertex
100
AcDb2dVertex
 10
679.9235770446
 20
161.1916651987
 30
0.0
  0
VERTEX
  5
243
330
1FF
100
AcDbEntity
  8
DEFAULT
  6
CONTINUOUS
 62
   136
100
AcDbVertex
100
AcDb2dVertex
 10
689.9235768211
 20
159.5249985693
 30
0.0
  0
SEQEND
  5
244
330
1FF
100
AcDbEntity
  8
DEFAULT
  6
CONTINUOUS
 62
   136
  0
POLYLINE
  5
200
330
1FD
100
AcDbEntity
  8
DEFAULT
  6
CONTINUOUS
 62
   136
100
AcDb2dPolyline
 66
     1
 10
0.0
 20
0.0
 30
0.0
  0
VERTEX
  5
245
330
200
100
AcDbEntity
  8
DEFAULT
  6
CONTINUOUS
 62
   136
100
AcDbVertex
100
AcDb2dVertex
 10
967.2692751479
 20
162.8583318281
 30
0.0
  0
VERTEX
  5
246
330
200
100
AcDbEntity
  8
DEFAULT
  6
CONTINUOUS
 62
   136
100
AcDbVertex
100
AcDb2dVertex
 10
977.2692749244
 20
161.1916651987
 30
0.0
  0
VERTEX
  5
247
330
200
100
AcDbEntity
  8
DEFAULT
  6
CONTINUOUS
 62
   136
100
AcDbVertex
100
AcDb2dVertex
 10
967.2692751479
 20
159.5249985693
 30
0.0
  0
SEQEND
  5
248
330
200
100
AcDbEntity
  8
DEFAULT
  6
CONTINUOUS
 62
   136
  0
LINE
  5
201
330
1FD
100
AcDbEntity
  8
DEFAULT
  6
CONTINUOUS
 62
   136
100
AcDbLine
 10
679.9235770446
 20
208.2633796186
 30
0.0
 11
679.9235770446
 21
156.1916653104
 31
0.0
  0
LINE
  5
202
330
1FD
100
AcDbEntity
  8
DEFAULT
  6
CONTINUOUS
 62
   136
100
AcDbLine
 10
977.2692677431
 20
240.2008796186
 30
0.0
 11
977.2692677431
 21
156.1916653104
 31
0.0
  0
LINE
  5
203
330
1FD
100
AcDbEntity
  8
DEFAULT
  6
CONTINUOUS
 62
   136
100
AcDbLine
 10
679.9235770446
 20
161.1916651987
 30
0.0
 11
977.2692749244
 21
161.1916651987
 31
0.0
  0
TEXT
  5
204
330
1FD
100
AcDbEntity
  8
DEFAULT
  6
CONTINUOUS
 62
   136
100
AcDbText
 10
812.4378893992
 20
163.6916651987
 30
0.0
 40
10.0
  1
297.3
  7
SEACAD_SEANSI_TTF
 11
812.4378893992
 21
173.6916651987
 31
0.0
100
AcDbText
 73
     3
  0
ENDBLK
  5
206
330
1FD
100
AcDbEntity
  8
0
100
AcDbBlockEnd
  0
BLOCK
  5
20F
330
207
100
AcDbEntity
  8
0
100
AcDbBlockBegin
  2
GDIMGGROUP5
 70
     0
 10
0.0
 20
0.0
 30
0.0
  3
GDIMGGROUP5
  1

  0
POLYLINE
  5
209
330
207
100
AcDbEntity
  8
DEFAULT
  6
CONTINUOUS
 62
   136
100
AcDb2dPolyline
 66
     1
 10
0.0
 20
0.0
 30
0.0
  0
VERTEX
  5
249
330
209
100
AcDbEntity
  8
DEFAULT
  6
CONTINUOUS
 62
   136
100
AcDbVertex
100
AcDb2dVertex
 10
850.0739155516
 20
671.6055624521
 30
0.0
  0
VERTEX
  5
24A
330
209
100
AcDbEntity
  8
DEFAULT
  6
CONTINUOUS
 62
   136
100
AcDbVertex
100
AcDb2dVertex
 10
859.8411779691
 20
668.8892491322
 30
0.0
  0
VERTEX
  5
24B
330
209
100
AcDbEntity
  8
DEFAULT
  6
CONTINUOUS
 62
   136
100
AcDbVertex
100
AcDb2dVertex
 10
849.7209092002
 20
668.290973921
 30
0.0
  0
SEQEND
  5
24C
330
209
100
AcDbEntity
  8
DEFAULT
  6
CONTINUOUS
 62
   136
  0
POLYLINE
  5
20A
330
207
100
AcDbEntity
  8
DEFAULT
  6
CONTINUOUS
 62
   136
100
AcDb2dPolyline
 66
     1
 10
0.0
 20
0.0
 30
0.0
  0
VERTEX
  5
24D
330
20A
100
AcDbEntity
  8
DEFAULT
  6
CONTINUOUS
 62
   136
100
AcDbVertex
100
AcDb2dVertex
 10
831.8999718477
 20
669.3809491431
 30
0.0
  0
VERTEX
  5
24E
330
20A
100
AcDbEntity
  8
DEFAULT
  6
CONTINUOUS
 62
   136
100
AcDbVertex
100
AcDb2dVertex
 10
821.9280494347
 20
671.2081154114
 30
0.0
  0
VERTEX
  5
24F
330
20A
100
AcDbEntity
  8
DEFAULT
  6
CONTINUOUS
 62
   136
100
AcDbVertex
100
AcDb2dVertex
 10
831.95354348
 20
672.7138518861
 30
0.0
  0
SEQEND
  5
250
330
20A
100
AcDbEntity
  8
DEFAULT
  6
CONTINUOUS
 62
   136
  0
LINE
  5
20B
330
207
100
AcDbEntity
  8
DEFAULT
  6
CONTINUOUS
 62
   136
100
AcDbLine
 10
852.9051132149
 20
612.3995349275
 30
0.0
 11
860.450524105
 21
673.8519751576
 31
0.0
  0
LINE
  5
20C
330
207
100
AcDbEntity
  8
DEFAULT
  6
CONTINUOUS
 62
   136
100
AcDbLine
 10
821.9280494347
 20
361.0534651675
 30
0.0
 11
821.9280494347
 21
676.2081106431
 31
0.0
  0
ARC
  5
20D
330
207
100
AcDbEntity
  8
DEFAULT
  6
CONTINUOUS
 62
   136
100
AcDbCircle
 10
821.9280494347
 20
360.1115961797
 30
0.0
 40
311.0965192317934
100
AcDbArc
 50
83.0
 51
90.0000000525
  0
TEXT
  5
20E
330
207
100
AcDbEntity
  8
DEFAULT
  6
CONTINUOUS
 62
   136
100
AcDbText
 10
837.9545896954
 20
673.4905854101
 30
0.0
 40
10.0
  1
7°
 50
355.0678973794
  7
SEACAD_SEANSI_TTF
 11
838.8143412796
 21
683.4535582201
 31
0.0
100
AcDbText
 73
     3
  0
ENDBLK
  5
210
330
207
100
AcDbEntity
  8
0
100
AcDbBlockEnd
  0
BLOCK
  5
219
330
211
100
AcDbEntity
  8
0
100
AcDbBlockBegin
  2
GDIMGGROUP6
 70
     0
 10
0.0
 20
0.0
 30
0.0
  3
GDIMGGROUP6
  1

  0
POLYLINE
  5
213
330
211
100
AcDbEntity
  8
DEFAULT
  6
CONTINUOUS
 62
   136
100
AcDb2dPolyline
 66
     1
 10
0.0
 20
0.0
 30
0.0
  0
VERTEX
  5
251
330
213
100
AcDbEntity
  8
DEFAULT
  6
CONTINUOUS
 62
   136
100
AcDbVertex
100
AcDb2dVertex
 10
1024.9863327461
 20
210.325879585
 30
0.0
  0
VERTEX
  5
252
330
213
100
AcDbEntity
  8
DEFAULT
  6
CONTINUOUS
 62
   136
100
AcDbVertex
100
AcDb2dVertex
 10
1026.6529993755
 20
200.3258798085
 30
0.0
  0
VERTEX
  5
253
330
213
100
AcDbEntity
  8
DEFAULT
  6
CONTINUOUS
 62
   136
100
AcDbVertex
100
AcDb2dVertex
 10
1028.3196660049
 20
210.325879585
 30
0.0
  0
SEQEND
  5
254
330
213
100
AcDbEntity
  8
DEFAULT
  6
CONTINUOUS
 62
   136
  0
POLYLINE
  5
214
330
211
100
AcDbEntity
  8
DEFAULT
  6
CONTINUOUS
 62
   136
100
AcDb2dPolyline
 66
     1
 10
0.0
 20
0.0
 30
0.0
  0
VERTEX
  5
255
330
214
100
AcDbEntity
  8
DEFAULT
  6
CONTINUOUS
 62
   136
100
AcDbVertex
100
AcDb2dVertex
 10
1024.9863327461
 20
633.444809895
 30
0.0
  0
VERTEX
  5
256
330
214
100
AcDbEntity
  8
DEFAULT
  6
CONTINUOUS
 62
   136
100
AcDbVertex
100
AcDb2dVertex
 10
1026.6529993755
 20
643.4448096715
 30
0.0
  0
VERTEX
  5
257
330
214
100
AcDbEntity
  8
DEFAULT
  6
CONTINUOUS
 62
   136
100
AcDbVertex
100
AcDb2dVertex
 10
1028.3196660049
 20
633.444809895
 30
0.0
  0
SEQEND
  5
258
330
214
100
AcDbEntity
  8
DEFAULT
  6
CONTINUOUS
 62
   136
  0
LINE
  5
215
330
211
100
AcDbEntity
  8
DEFAULT
  6
CONTINUOUS
 62
   136
100
AcDbLine
 10
934.6735772346
 20
200.3258798085
 30
0.0
 11
1031.6529992637
 21
200.3258798085
 31
0.0
  0
LINE
  5
216
330
211
100
AcDbEntity
  8
DEFAULT
  6
CONTINUOUS
 62
   136
100
AcDbLine
 10
895.9954140691
 20
643.4448122166
 30
0.0
 11
1031.6529992637
 21
643.4448122166
 31
0.0
  0
LINE
  5
217
330
211
100
AcDbEntity
  8
DEFAULT
  6
CONTINUOUS
 62
   136
100
AcDbLine
 10
1026.6529993755
 20
200.3258798085
 30
0.0
 11
1026.6529993755
 21
643.4448096715
 31
0.0
  0
TEXT
  5
218
330
211
100
AcDbEntity
  8
DEFAULT
  6
CONTINUOUS
 62
   136
100
AcDbText
 10
1024.1529993755
 20
410.9097349839
 30
0.0
 40
10.0
  1
443
 50
90.0
  7
SEACAD_SEANSI_TTF
 11
1014.1529993755
 21
410.9097349839
 31
0.0
100
AcDbText
 73
     3
  0
ENDBLK
  5
21A
330
211
100
AcDbEntity
  8
0
100
AcDbBlockEnd
  0
ENDSEC
  0
SECTION
  2
ENTITIES
  0
INSERT
  5
3D
330
1F
100
AcDbEntity
  8
DEFAULT
100
AcDbBlockReference
  2
SE
 10
0.0
 20
0.0
 30
0.0
  0
INSERT
  5
11D
330
1F
100
AcDbEntity
  8
DEFAULT
100
AcDbBlockReference
  2
SE1
 10
0.0
 20
0.0
 30
0.0
  0
INSERT
  5
1B4
330
1F
100
AcDbEntity
  8
DEFAULT
100
AcDbBlockReference
  2
GDIMGGROUP
 10
0.0
 20
0.0
 30
0.0
  0
INSERT
  5
1E1
330
1F
100
AcDbEntity
  8
DEFAULT
100
AcDbBlockReference
  2
GDIMGGROUP1
 10
0.0
 20
0.0
 30
0.0
  0
INSERT
  5
1EB
330
1F
100
AcDbEntity
  8
DEFAULT
100
AcDbBlockReference
  2
GDIMGGROUP2
 10
0.0
 20
0.0
 30
0.0
  0
INSERT
  5
1F5
330
1F
100
AcDbEntity
  8
DEFAULT
100
AcDbBlockReference
  2
GDIMGGROUP3
 10
0.0
 20
0.0
 30
0.0
  0
INSERT
  5
1FE
330
1F
100
AcDbEntity
  8
DEFAULT
100
AcDbBlockReference
  2
GDIMGGROUP4
 10
0.0
 20
0.0
 30
0.0
  0
INSERT
  5
208
330
1F
100
AcDbEntity
  8
DEFAULT
100
AcDbBlockReference
  2
GDIMGGROUP5
 10
0.0
 20
0.0
 30
0.0
  0
INSERT
  5
212
330
1F
100
AcDbEntity
  8
DEFAULT
100
AcDbBlockReference
  2
GDIMGGROUP6
 10
0.0
 20
0.0
 30
0.0
  0
ENDSEC
  0
SECTION
  2
OBJECTS
  0
DICTIONARY
  5
C
330
0
100
AcDbDictionary
  3
ACAD_GROUP
350
D
  3
ACAD_LAYOUT
350
1A
  3
ACAD_MLEADERSTYLE
350
21D
  3
ACAD_MLINESTYLE
350
17
  3
ACAD_PLOTSETTINGS
350
19
  3
ACAD_SCALELIST
350
1BA
  3
ACAD_VISUALSTYLE
350
2A
  3
ACDBVARIABLEDICTIONARY
350
21B
1001
ACAD
1000
TREAT_AS_HARD
1070
     0
  0
DICTIONARY
  5
D
102
{ACAD_REACTORS
330
C
102
}
330
C
100
AcDbDictionary
1001
ACAD
1000
TREAT_AS_HARD
1070
     0
  0
DICTIONARY
  5
1A
102
{ACAD_REACTORS
330
C
102
}
330
C
100
AcDbDictionary
1001
ACAD
1000
TREAT_AS_HARD
1070
     0
  0
DICTIONARY
  5
21D
102
{ACAD_REACTORS
330
C
102
}
330
C
100
AcDbDictionary
1001
ACAD
1000
TREAT_AS_HARD
1070
     0
  0
DICTIONARY
  5
17
102
{ACAD_REACTORS
330
C
102
}
330
C
100
AcDbDictionary
  3
STANDARD
350
18
1001
ACAD
1000
TREAT_AS_HARD
1070
     0
  0
DICTIONARY
  5
19
102
{ACAD_REACTORS
330
C
102
}
330
C
100
AcDbDictionary
1001
ACAD
1000
TREAT_AS_HARD
1070
     0
  0
DICTIONARY
  5
1BA
102
{ACAD_REACTORS
330
C
102
}
330
C
100
AcDbDictionary
  3
A0
350
1BB
  3
A1
350
1BC
  3
A2
350
1BD
  3
A3
350
1BE
  3
A4
350
1BF
  3
A5
350
1C0
  3
A6
350
1C1
  3
A7
350
1C2
  3
A8
350
1C3
  3
A9
350
1C4
  3
B0
350
1C5
  3
B1
350
1C6
  3
B2
350
1C7
  3
B3
350
1C8
  3
B4
350
1C9
  3
B5
350
1CA
  3
B6
350
1CB
  3
B7
350
1CC
  3
B8
350
1CD
  3
B9
350
1CE
  3
C0
350
1CF
  3
C1
350
1D0
  3
C2
350
1D1
  3
C3
350
1D2
  3
C4
350
1D3
  3
C5
350
1D4
  3
C6
350
1D5
  3
C7
350
1D6
  3
C8
350
1D7
  3
C9
350
1D8
  3
D0
350
1D9
  3
D1
350
1DA
  3
D2
350
1DB
1001
ACAD
1000
TREAT_AS_HARD
1070
     0
  0
DICTIONARY
  5
2A
102
{ACAD_REACTORS
330
C
102
}
330
C
100
AcDbDictionary
  3
2DWIREFRAME
350
2F
  3
3D_HIDDEN
350
31
  3
3DWIREFRAME
350
30
  3
BASIC
350
32
  3
BRIGHTEN
350
36
  3
COLORCHANGE
350
3A
  3
CONCEPTUAL
350
34
  3
DIM
350
35
  3
FACEPATTERN
350
39
  3
FLAT
350
2B
  3
FLATWITHEDGES
350
2C
  3
GOURAUD
350
2D
  3
GOURAUDWITHEDGES
350
2E
  3
LINEPATTERN
350
38
  3
REALISTIC
350
33
  3
THICKEN
350
37
1001
ACAD
1000
TREAT_AS_HARD
1070
     0
  0
DICTIONARY
  5
21B
102
{ACAD_REACTORS
330
C
102
}
330
C
100
AcDbDictionary
  3
CANNOSCALE
350
220
  3
PSOLHEIGHT
350
21F
  3
PSOLWIDTH
350
21E
1001
ACAD
1000
TREAT_AS_HARD
1070
     0
  0
MLINESTYLE
  5
18
102
{ACAD_REACTORS
330
17
102
}
330
17
100
AcDbMlineStyle
  2
Standard
 70
     0
  3

 62
   256
 51
90.0
 52
90.0
 71
     2
 49
0.5
 62
   256
  6
BYLAYER
 49
-0.5
 62
   256
  6
BYLAYER
  0
ACAD_PROXY_OBJECT
  5
1BB
102
{ACAD_REACTORS
330
1BA
102
}
330
1BA
100
AcDbZombieObject
 90
      499
 91
      502
 93
       41
310
903313A31580
  0
ACAD_PROXY_OBJECT
  5
1BC
102
{ACAD_REACTORS
330
1BA
102
}
330
1BA
100
AcDbZombieObject
 90
      499
 91
      502
 93
      105
310
903313A324000000000000004000
  0
ACAD_PROXY_OBJECT
  5
1BD
102
{ACAD_REACTORS
330
1BA
102
}
330
1BA
100
AcDbZombieObject
 90
      499
 91
      502
 93
      105
310
903313A344000000000000104000
  0
ACAD_PROXY_OBJECT
  5
1BE
102
{ACAD_REACTORS
330
1BA
102
}
330
1BA
100
AcDbZombieObject
 90
      499
 91
      502
 93
      105
310
903313A354000000000000144000
  0
ACAD_PROXY_OBJECT
  5
1BF
102
{ACAD_REACTORS
330
1BA
102
}
330
1BA
100
AcDbZombieObject
 90
      499
 91
      502
 93
      105
310
903313A384000000000000204000
  0
ACAD_PROXY_OBJECT
  5
1C0
102
{ACAD_REACTORS
330
1BA
102
}
330
1BA
100
AcDbZombieObject
 90
      499
 91
      502
 93
      113
310
904313A31304000000000000244000
  0
ACAD_PROXY_OBJECT
  5
1C1
102
{ACAD_REACTORS
330
1BA
102
}
330
1BA
100
AcDbZombieObject
 90
      499
 91
      502
 93
      113
310
904313A31364000000000000304000
  0
ACAD_PROXY_OBJECT
  5
1C2
102
{ACAD_REACTORS
330
1BA
102
}
330
1BA
100
AcDbZombieObject
 90
      499
 91
      502
 93
      113
310
904313A32304000000000000344000
  0
ACAD_PROXY_OBJECT
  5
1C3
102
{ACAD_REACTORS
330
1BA
102
}
330
1BA
100
AcDbZombieObject
 90
      499
 91
      502
 93
      113
310
904313A333040000000000003E4000
  0
ACAD_PROXY_OBJECT
  5
1C4
102
{ACAD_REACTORS
330
1BA
102
}
330
1BA
100
AcDbZombieObject
 90
      499
 91
      502
 93
      113
310
904313A34304000000000000444000
  0
ACAD_PROXY_OBJECT
  5
1C5
102
{ACAD_REACTORS
330
1BA
102
}
330
1BA
100
AcDbZombieObject
 90
      499
 91
      502
 93
      113
310
904313A35304000000000000494000
  0
ACAD_PROXY_OBJECT
  5
1C6
102
{ACAD_REACTORS
330
1BA
102
}
330
1BA
100
AcDbZombieObject
 90
      499
 91
      502
 93
      121
310
905313A3130304000000000000594000
  0
ACAD_PROXY_OBJECT
  5
1C7
102
{ACAD_REACTORS
330
1BA
102
}
330
1BA
100
AcDbZombieObject
 90
      499
 91
      502
 93
      105
310
903323A310000000000000010100
  0
ACAD_PROXY_OBJECT
  5
1C8
102
{ACAD_REACTORS
330
1BA
102
}
330
1BA
100
AcDbZombieObject
 90
      499
 91
      502
 93
      105
310
903343A310000000000000410100
  0
ACAD_PROXY_OBJECT
  5
1C9
102
{ACAD_REACTORS
330
1BA
102
}
330
1BA
100
AcDbZombieObject
 90
      499
 91
      502
 93
      105
310
903383A310000000000000810100
  0
ACAD_PROXY_OBJECT
  5
1CA
102
{ACAD_REACTORS
330
1BA
102
}
330
1BA
100
AcDbZombieObject
 90
      499
 91
      502
 93
      113
310
90431303A310000000000000910100
  0
ACAD_PROXY_OBJECT
  5
1CB
102
{ACAD_REACTORS
330
1BA
102
}
330
1BA
100
AcDbZombieObject
 90
      499
 91
      502
 93
      121
310
9053130303A310000000000001650100
  0
ACAD_PROXY_OBJECT
  5
1CC
102
{ACAD_REACTORS
330
1BA
102
}
330
1BA
100
AcDbZombieObject
 90
      499
 91
      502
 93
      257
310
90E312F31323822203D2031272D3022000000000000200FC000000000000284000
  0
ACAD_PROXY_OBJECT
  5
1CD
102
{ACAD_REACTORS
330
1BA
102
}
330
1BA
100
AcDbZombieObject
 90
      499
 91
      502
 93
      249
310
90D312F363422203D2031272D3022000000000000240FC000000000000284000
  0
ACAD_PROXY_OBJECT
  5
1CE
102
{ACAD_REACTORS
330
1BA
102
}
330
1BA
100
AcDbZombieObject
 90
      499
 91
      502
 93
      249
310
90D312F333222203D2031272D3022000000000000280FC000000000000284000
  0
ACAD_PROXY_OBJECT
  5
1CF
102
{ACAD_REACTORS
330
1BA
102
}
330
1BA
100
AcDbZombieObject
 90
      499
 91
      502
 93
      249
310
90D312F313622203D2031272D30220000000000002C0FC000000000000284000
  0
ACAD_PROXY_OBJECT
  5
1D0
102
{ACAD_REACTORS
330
1BA
102
}
330
1BA
100
AcDbZombieObject
 90
      499
 91
      502
 93
      249
310
90D332F333222203D2031272D30220000000000002E0FC000000000000284000
  0
ACAD_PROXY_OBJECT
  5
1D1
102
{ACAD_REACTORS
330
1BA
102
}
330
1BA
100
AcDbZombieObject
 90
      499
 91
      502
 93
      241
310
90C312F3822203D2031272D3022000000000000300FC000000000000284000
  0
ACAD_PROXY_OBJECT
  5
1D2
102
{ACAD_REACTORS
330
1BA
102
}
330
1BA
100
AcDbZombieObject
 90
      499
 91
      502
 93
      249
310
90D332F313622203D2031272D3022000000000000320FC000000000000284000
  0
ACAD_PROXY_OBJECT
  5
1D3
102
{ACAD_REACTORS
330
1BA
102
}
330
1BA
100
AcDbZombieObject
 90
      499
 91
      502
 93
      241
310
90C312F3422203D2031272D3022000000000000340FC000000000000284000
  0
ACAD_PROXY_OBJECT
  5
1D4
102
{ACAD_REACTORS
330
1BA
102
}
330
1BA
100
AcDbZombieObject
 90
      499
 91
      502
 93
      241
310
90C332F3822203D2031272D3022000000000000360FC000000000000284000
  0
ACAD_PROXY_OBJECT
  5
1D5
102
{ACAD_REACTORS
330
1BA
102
}
330
1BA
100
AcDbZombieObject
 90
      499
 91
      502
 93
      241
310
90C312F3222203D2031272D3022000000000000380FC000000000000284000
  0
ACAD_PROXY_OBJECT
  5
1D6
102
{ACAD_REACTORS
330
1BA
102
}
330
1BA
100
AcDbZombieObject
 90
      499
 91
      502
 93
      241
310
90C332F3422203D2031272D30220000000000003A0FC000000000000284000
  0
ACAD_PROXY_OBJECT
  5
1D7
102
{ACAD_REACTORS
330
1BA
102
}
330
1BA
100
AcDbZombieObject
 90
      499
 91
      502
 93
      161
310
90A3122203D2031272D30224000000000000284000
  0
ACAD_PROXY_OBJECT
  5
1D8
102
{ACAD_REACTORS
330
1BA
102
}
330
1BA
100
AcDbZombieObject
 90
      499
 91
      502
 93
      257
310
90E312D312F3222203D2031272D30220000000000003E0FC000000000000284000
  0
ACAD_PROXY_OBJECT
  5
1D9
102
{ACAD_REACTORS
330
1BA
102
}
330
1BA
100
AcDbZombieObject
 90
      499
 91
      502
 93
      225
310
90A3322203D2031272D302200000000000002100000000000000284000
  0
ACAD_PROXY_OBJECT
  5
1DA
102
{ACAD_REACTORS
330
1BA
102
}
330
1BA
100
AcDbZombieObject
 90
      499
 91
      502
 93
      225
310
90A3622203D2031272D302200000000000006100000000000000284000
  0
ACAD_PROXY_OBJECT
  5
1DB
102
{ACAD_REACTORS
330
1BA
102
}
330
1BA
100
AcDbZombieObject
 90
      499
 91
      502
 93
      249
310
90D31272D3022203D2031272D30220000000000000A100000000000000284000
  0
ACAD_PROXY_OBJECT
  5
2F
102
{ACAD_REACTORS
330
2A
102
}
330
2A
100
AcDbZombieObject
 90
      499
 91
      501
 93
      436
310
42CC9915DA5C99599C985B595049028333333333333E3BF0000000000000FB0107901411070040501600405405064090741402480A0340
1001
ACAD
1000
AcDbSavedByObjectVersion
1070
     0
  0
ACAD_PROXY_OBJECT
  5
31
102
{ACAD_REACTORS
330
2A
102
}
330
2A
100
AcDbZombieObject
 90
      499
 91
      501
 93
      500
310
424CD108121A5919195B90640502408333333333333E3BF0000000000000FB01079024090700405020000000000001110200405405064090740C02480A0340
1001
ACAD
1000
AcDbSavedByObjectVersion
1070
     0
  0
ACAD_PROXY_OBJECT
  5
30
102
{ACAD_REACTORS
330
2A
102
}
330
2A
100
AcDbZombieObject
 90
      499
 91
      501
 93
      436
310
42CCD915DA5C99599C985B595059028333333333333E3BF0000000000000FB0107901411070040501600405405064090741402480A0340
1001
ACAD
1000
AcDbSavedByObjectVersion
1070
     0
  0
ACAD_PROXY_OBJECT
  5
32
102
{ACAD_REACTORS
330
2A
102
}
330
2A
100
AcDbZombieObject
 90
      499
 91
      501
 93
      388
310
4150985CDA58D07406404333333333333E3BF0000000000000FB0107A41107004050150841D405064090741402480A0350
1001
ACAD
1000
AcDbSavedByObjectVersion
1070
     0
  0
ACAD_PROXY_OBJECT
  5
36
102
{ACAD_REACTORS
330
2A
102
}
330
2A
100
AcDbZombieObject
 90
      499
 91
      501
 93
      428
310
42109C9A59DA1D195B90C409028333333333333E3BF0000000000000FB010790141107004050150841D405064090741402480A029950
1001
ACAD
1000
AcDbSavedByObjectVersion
1070
     0
  0
ACAD_PROXY_OBJECT
  5
3A
102
{ACAD_REACTORS
330
2A
102
}
330
2A
100
AcDbZombieObject
 90
      499
 91
      501
 93
      452
310
42D0DBDB1BDC90DA185B99D95104090240C333333333333E3BF0000000000000FB0108901411070040501508421405064090741402480A0350
1001
ACAD
1000
AcDbSavedByObjectVersion
1070
     0
  0
ACAD_PROXY_OBJECT
  5
34
102
{ACAD_REACTORS
330
2A
102
}
330
2A
100
AcDbZombieObject
 90
      499
 91
      501
 93
      500
310
4290DBDB98D95C1D1D585B10940D028333333333333E3BF0000000000000FB0107902409070040501000000000000111010841D405064090740C02480A0340
1001
ACAD
1000
AcDbSavedByObjectVersion
1070
     0
  0
ACAD_PROXY_OBJECT
  5
35
102
{ACAD_REACTORS
330
2A
102
}
330
2A
100
AcDbZombieObject
 90
      499
 91
      501
 93
      412
310
40D11A5B50B409028333333333333E3BF0000000000000FB010790141107004050150841D405064090741402480A02677FFFFFD0
1001
ACAD
1000
AcDbSavedByObjectVersion
1070
     0
  0
ACAD_PROXY_OBJECT
  5
39
102
{ACAD_REACTORS
330
2A
102
}
330
2A
100
AcDbZombieObject
 90
      499
 91
      501
 93
      444
310
42D19858D95C185D1D195C9B90F409028333333333333E3BF0000000000000FB010790141107004050150841D405064090741402480A0350
1001
ACAD
1000
AcDbSavedByObjectVersion
1070
     0
  0
ACAD_PROXY_OBJECT
  5
2B
102
{ACAD_REACTORS
330
2A
102
}
330
2A
100
AcDbZombieObject
 90
      499
 91
      501
 93
      388
310
41119B185D240901404333333333333E3BF0000000000000F9010740A41107004050150841D405064090741402480A1B50
1001
ACAD
1000
AcDbSavedByObjectVersion
1070
     0
  0
ACAD_PROXY_OBJECT
  5
2C
102
{ACAD_REACTORS
330
2A
102
}
330
2A
100
AcDbZombieObject
 90
      499
 91
      501
 93
      476
310
43519B185D15DA5D1A115919D95CD0140901404333333333333E3BF0000000000000F9010740901411070040501600405405064090741402480A1B50
1001
ACAD
1000
AcDbSavedByObjectVersion
1070
     0
  0
ACAD_PROXY_OBJECT
  5
2D
102
{ACAD_REACTORS
330
2A
102
}
330
2A
100
AcDbZombieObject
 90
      499
 91
      501
 93
      412
310
41D1DBDD5C985D5910240902404333333333333E3BF0000000000000F9010740A411070040501641D405064090741402480A1B50
1001
ACAD
1000
AcDbSavedByObjectVersion
1070
     0
  0
ACAD_PROXY_OBJECT
  5
2E
102
{ACAD_REACTORS
330
2A
102
}
330
2A
100
AcDbZombieObject
 90
      499
 91
      501
 93
      500
310
4411DBDD5C985D5915DA5D1A115919D95CD0340902404333333333333E3BF0000000000000F9010740901411070040501600405405064090741402480A1B50
1001
ACAD
1000
AcDbSavedByObjectVersion
1070
     0
  0
ACAD_PROXY_OBJECT
  5
38
102
{ACAD_REACTORS
330
2A
102
}
330
2A
100
AcDbZombieObject
 90
      499
 91
      501
 93
      444
310
42D31A5B995C185D1D195C9B90E409028333333333333E3BF0000000000000FB010790141107004050750841D405064090741402483A0350
1001
ACAD
1000
AcDbSavedByObjectVersion
1070
     0
  0
ACAD_PROXY_OBJECT
  5
33
102
{ACAD_REACTORS
330
2A
102
}
330
2A
100
AcDbZombieObject
 90
      499
 91
      501
 93
      420
310
425499585B1A5CDD1A58D08409028333333333333E3BF0000000000000FB01079019070040501508421405064090741402480A1B40
1001
ACAD
1000
AcDbSavedByObjectVersion
1070
     0
  0
ACAD_PROXY_OBJECT
  5
37
102
{ACAD_REACTORS
330
2A
102
}
330
2A
100
AcDbZombieObject
 90
      499
 91
      501
 93
      412
310
41D51A1A58DAD95B90D409028333333333333E3BF0000000000000FB010790141107004050150C41D405064090741402480A0350
1001
ACAD
1000
AcDbSavedByObjectVersion
1070
     0
  0
DICTIONARYVAR
  5
220
102
{ACAD_REACTORS
330
21B
102
}
330
21B
100
DictionaryVariables
280
     0
  1
1:1
  0
DICTIONARYVAR
  5
21F
102
{ACAD_REACTORS
330
21B
102
}
330
21B
100
DictionaryVariables
280
     0
  1
80.000000
  0
DICTIONARYVAR
  5
21E
102
{ACAD_REACTORS
330
21B
102
}
330
21B
100
DictionaryVariables
280
     0
  1
5.000000
  0
ENDSEC
  0
EOF
