  0
SECTION
  2
HEADER
  9
$ACADVER
  1
AC1012
  9
$DWGCODEPAGE
  3
ansi_932
  9
$INSBASE
 10
0.0
 20
0.0
 30
0.0
  9
$EXTMIN
 10
0.0
 20
0.0
 30
0.0
  9
$EXTMAX
 10
420.0
 20
297.0
 30
0.0
  9
$LIMMIN
 10
0.0
 20
0.0
  9
$LIMMAX
 10
420.0
 20
297.0
  9
$ORTHOMODE
 70
     0
  9
$REGENMODE
 70
     1
  9
$FILLMODE
 70
     1
  9
$QTEXTMODE
 70
     0
  9
$MIRRTEXT
 70
     1
  9
$DRAGMODE
 70
     2
  9
$LTSCALE
 40
1.0
  9
$OSMODE
 70
    37
  9
$ATTMODE
 70
     1
  9
$TEXTSIZE
 40
2.5
  9
$TRACEWID
 40
1.0
  9
$TEXTSTYLE
  7
STANDARD
  9
$CLAYER
  8
0
  9
$CELTYPE
  6
BYLAYER
  9
$CECOLOR
 62
   256
  9
$CELTSCALE
 40
1.0
  9
$DELOBJ
 70
     1
  9
$DISPSILH
 70
     0
  9
$DIMSCALE
 40
1.0
  9
$DIMASZ
 40
2.5
  9
$DIMEXO
 40
0.625
  9
$DIMDLI
 40
3.75
  9
$DIMRND
 40
0.0
  9
$DIMDLE
 40
0.0
  9
$DIMEXE
 40
1.25
  9
$DIMTP
 40
0.0
  9
$DIMTM
 40
0.0
  9
$DIMTXT
 40
2.5
  9
$DIMCEN
 40
2.5
  9
$DIMTSZ
 40
0.0
  9
$DIMTOL
 70
     0
  9
$DIMLIM
 70
     0
  9
$DIMTIH
 70
     0
  9
$DIMTOH
 70
     0
  9
$DIMSE1
 70
     0
  9
$DIMSE2
 70
     0
  9
$DIMTAD
 70
     1
  9
$DIMZIN
 70
     8
  9
$DIMBLK
  1

  9
$DIMASO
 70
     1
  9
$DIMSHO
 70
     1
  9
$DIMPOST
  1

  9
$DIMAPOST
  1

  9
$DIMALT
 70
     0
  9
$DIMALTD
 70
     3
  9
$DIMALTF
 40
0.0393700787
  9
$DIMLFAC
 40
1.0
  9
$DIMTOFL
 70
     1
  9
$DIMTVP
 40
0.0
  9
$DIMTIX
 70
     0
  9
$DIMSOXD
 70
     0
  9
$DIMSAH
 70
     0
  9
$DIMBLK1
  1

  9
$DIMBLK2
  1

  9
$DIMSTYLE
  2
ISO-25
  9
$DIMCLRD
 70
     0
  9
$DIMCLRE
 70
     0
  9
$DIMCLRT
 70
     0
  9
$DIMTFAC
 40
1.0
  9
$DIMGAP
 40
0.625
  9
$DIMJUST
 70
     0
  9
$DIMSD1
 70
     0
  9
$DIMSD2
 70
     0
  9
$DIMTOLJ
 70
     0
  9
$DIMTZIN
 70
     8
  9
$DIMALTZ
 70
     0
  9
$DIMALTTZ
 70
     0
  9
$DIMFIT
 70
     3
  9
$DIMUPT
 70
     0
  9
$DIMUNIT
 70
     2
  9
$DIMDEC
 70
     2
  9
$DIMTDEC
 70
     2
  9
$DIMALTU
 70
     2
  9
$DIMALTTD
 70
     3
  9
$DIMTXSTY
  7
STANDARD
  9
$DIMAUNIT
 70
     0
  9
$LUNITS
 70
     2
  9
$LUPREC
 70
     4
  9
$SKETCHINC
 40
1.0
  9
$FILLETRAD
 40
10.0
  9
$AUNITS
 70
     0
  9
$AUPREC
 70
     0
  9
$MENU
  1
.
  9
$ELEVATION
 40
0.0
  9
$PELEVATION
 40
0.0
  9
$THICKNESS
 40
0.0
  9
$LIMCHECK
 70
     0
  9
$CHAMFERA
 40
10.0
  9
$CHAMFERB
 40
10.0
  9
$CHAMFERC
 40
20.0
  9
$CHAMFERD
 40
0.0
  9
$SKPOLY
 70
     0
  9
$TDCREATE
 40
2457009.691147477
  9
$TDUPDATE
 40
2457009.691147489
  9
$TDINDWG
 40
0.0000000116
  9
$TDUSRTIMER
 40
0.0000000116
  9
$USRTIMER
 70
     1
  9
$ANGBASE
 50
0.0
  9
$ANGDIR
 70
     0
  9
$PDMODE
 70
     0
  9
$PDSIZE
 40
0.0
  9
$PLINEWID
 40
0.0
  9
$COORDS
 70
     1
  9
$SPLFRAME
 70
     0
  9
$SPLINETYPE
 70
     6
  9
$SPLINESEGS
 70
     8
  9
$ATTDIA
 70
     0
  9
$ATTREQ
 70
     1
  9
$HANDLING
 70
     1
  9
$HANDSEED
  5
464
  9
$SURFTAB1
 70
     6
  9
$SURFTAB2
 70
     6
  9
$SURFTYPE
 70
     6
  9
$SURFU
 70
     6
  9
$SURFV
 70
     6
  9
$UCSNAME
  2

  9
$UCSORG
 10
0.0
 20
0.0
 30
0.0
  9
$UCSXDIR
 10
1.0
 20
0.0
 30
0.0
  9
$UCSYDIR
 10
0.0
 20
1.0
 30
0.0
  9
$PUCSNAME
  2

  9
$PUCSORG
 10
0.0
 20
0.0
 30
0.0
  9
$PUCSXDIR
 10
1.0
 20
0.0
 30
0.0
  9
$PUCSYDIR
 10
0.0
 20
1.0
 30
0.0
  9
$USERI1
 70
     0
  9
$USERI2
 70
     0
  9
$USERI3
 70
     0
  9
$USERI4
 70
     0
  9
$USERI5
 70
     0
  9
$USERR1
 40
0.0
  9
$USERR2
 40
0.0
  9
$USERR3
 40
0.0
  9
$USERR4
 40
0.0
  9
$USERR5
 40
0.0
  9
$WORLDVIEW
 70
     1
  9
$SHADEDGE
 70
     3
  9
$SHADEDIF
 70
    70
  9
$TILEMODE
 70
     1
  9
$MAXACTVP
 70
    64
  9
$PINSBASE
 10
0.0
 20
0.0
 30
0.0
  9
$PLIMCHECK
 70
     0
  9
$PEXTMIN
 10
0.0
 20
0.0
 30
0.0
  9
$PEXTMAX
 10
420.0
 20
297.0
 30
0.0
  9
$PLIMMIN
 10
0.0
 20
0.0
  9
$PLIMMAX
 10
420.0
 20
297.0
  9
$UNITMODE
 70
     0
  9
$VISRETAIN
 70
     1
  9
$PLINEGEN
 70
     0
  9
$PSLTSCALE
 70
     1
  9
$TREEDEPTH
 70
  3020
  9
$PICKSTYLE
 70
     1
  9
$CMLSTYLE
  2
STANDARD
  9
$CMLJUST
 70
     0
  9
$CMLSCALE
 40
20.0
  9
$SAVEIMAGES
 70
     1
  0
ENDSEC
  0
SECTION
  2
CLASSES
  0
CLASS
  1
ACDBDICTIONARYWDFLT
  2
AcDbDictionaryWithDefault
  3
ObjectDBX Classes
 90
    32768
280
     0
281
     0
  0
CLASS
  1
VISUALSTYLE
  2
AcDbVisualStyle
  3
ObjectDBX Classes
 90
     4095
280
     0
281
     0
  0
CLASS
  1
SCALE
  2
AcDbScale
  3
ObjectDBX Classes
 90
     1153
280
     0
281
     0
  0
CLASS
  1
DICTIONARYVAR
  2
AcDbDictionaryVar
  3
ObjectDBX Classes
 90
        0
280
     0
281
     0
  0
CLASS
  1
XRECORD
  2
AcDbXrecord
  3
AutoCAD 2000
 90
    32768
280
     0
281
     0
  0
CLASS
  1
LWPOLYLINE
  2
AcDbPolyline
  3
AutoCAD 2000
 90
    32768
280
     0
281
     1
  0
CLASS
  1
HATCH
  2
AcDbHatch
  3
AutoCAD 2000
 90
    32768
280
     0
281
     1
  0
CLASS
  1
ACDBPLACEHOLDER
  2
AcDbPlaceHolder
  3
ObjectDBX Classes
 90
        0
280
     0
281
     0
  0
CLASS
  1
LAYOUT
  2
AcDbLayout
  3
ObjectDBX Classes
 90
        0
280
     0
281
     0
  0
ENDSEC
  0
SECTION
  2
TABLES
  0
TABLE
  2
VPORT
  5
8
330
0
100
AcDbSymbolTable
 70
     1
  0
VPORT
  5
29
330
8
100
AcDbSymbolTableRecord
100
AcDbViewportTableRecord
  2
*ACTIVE
 70
     0
 10
0.0
 20
0.0
 11
1.0
 21
1.0
 12
344.1869158879
 22
148.5
 13
0.0
 23
0.0
 14
10.0
 24
10.0
 15
10.0
 25
10.0
 16
0.0
 26
0.0
 36
1.0
 17
0.0
 27
0.0
 37
0.0
 40
297.0
 41
1.9729729729
 42
50.0
 43
0.0
 44
0.0
 50
0.0
 51
0.0
 71
     0
 72
   100
 73
     1
 74
     3
 75
     0
 76
     0
 77
     0
 78
     0
  0
ENDTAB
  0
TABLE
  2
LTYPE
  5
5
330
0
100
AcDbSymbolTable
 70
     5
  0
LTYPE
  5
14
330
5
100
AcDbSymbolTableRecord
100
AcDbLinetypeTableRecord
  2
BYBLOCK
 70
     0
  3

 72
    65
 73
     0
 40
0.0
  0
LTYPE
  5
15
330
5
100
AcDbSymbolTableRecord
100
AcDbLinetypeTableRecord
  2
BYLAYER
 70
     0
  3

 72
    65
 73
     0
 40
0.0
  0
LTYPE
  5
16
330
5
100
AcDbSymbolTableRecord
100
AcDbLinetypeTableRecord
  2
CONTINUOUS
 70
     0
  3
Solid line
 72
    65
 73
     0
 40
0.0
  0
LTYPE
  5
66
330
5
100
AcDbSymbolTableRecord
100
AcDbLinetypeTableRecord
  2
CENTER2
 70
     0
  3
Center (.5x) ___ _ ___ _ ___ _ ___ _ ___ _ ___
 72
    65
 73
     4
 40
28.575
 49
19.05
 74
     4
 75
     0
340
0
 46
0.0
 50
0.0
 44
0.0
 45
0.0
 49
-3.175
 74
     4
 75
     0
340
0
 46
0.0
 50
0.0
 44
0.0
 45
0.0
 49
3.175
 74
     4
 75
     0
340
0
 46
0.0
 50
0.0
 44
0.0
 45
0.0
 49
-3.175
 74
     4
 75
     0
340
0
 46
0.0
 50
0.0
 44
0.0
 45
0.0
  0
LTYPE
  5
68
330
5
100
AcDbSymbolTableRecord
100
AcDbLinetypeTableRecord
  2
PHANTOM2
 70
     0
  3
Phantom (.5x) ___ _ _ ___ _ _ ___ _ _ ___ _ _
 72
    65
 73
     6
 40
31.75
 49
15.875
 74
     4
 75
     0
340
0
 46
0.0
 50
0.0
 44
0.0
 45
0.0
 49
-3.175
 74
     4
 75
     0
340
0
 46
0.0
 50
0.0
 44
0.0
 45
0.0
 49
3.175
 74
     4
 75
     0
340
0
 46
0.0
 50
0.0
 44
0.0
 45
0.0
 49
-3.175
 74
     4
 75
     0
340
0
 46
0.0
 50
0.0
 44
0.0
 45
0.0
 49
3.175
 74
     4
 75
     0
340
0
 46
0.0
 50
0.0
 44
0.0
 45
0.0
 49
-3.175
 74
     4
 75
     0
340
0
 46
0.0
 50
0.0
 44
0.0
 45
0.0
  0
LTYPE
  5
6A
330
5
100
AcDbSymbolTableRecord
100
AcDbLinetypeTableRecord
  2
HIDDEN2
 70
     0
  3
Hidden (.5x) _ _ _ _ _ _ _ _ _ _ _ _ _ _ _ _ _ 
 72
    65
 73
     2
 40
4.7625
 49
3.175
 74
     4
 75
     0
340
0
 46
0.0
 50
0.0
 44
0.0
 45
0.0
 49
-1.5875
 74
     4
 75
     0
340
0
 46
0.0
 50
0.0
 44
0.0
 45
0.0
  0
LTYPE
  5
81
330
5
100
AcDbSymbolTableRecord
100
AcDbLinetypeTableRecord
  2
DASHDOT2
 70
     0
  3
Dash dot (.5x) _._._._._._._._._._._._._._._.
 72
    65
 73
     4
 40
12.7
 49
6.35
 74
     4
 75
     0
340
0
 46
0.0
 50
0.0
 44
0.0
 45
0.0
 49
-3.175
 74
     4
 75
     0
340
0
 46
0.0
 50
0.0
 44
0.0
 45
0.0
 49
0.0
 74
     4
 75
     0
340
0
 46
0.0
 50
0.0
 44
0.0
 45
0.0
 49
-3.175
 74
     4
 75
     0
340
0
 46
0.0
 50
0.0
 44
0.0
 45
0.0
  0
ENDTAB
  0
TABLE
  2
LAYER
  5
2
330
0
100
AcDbSymbolTable
 70
    24
  0
LAYER
  5
10
330
2
100
AcDbSymbolTableRecord
100
AcDbLayerTableRecord
  2
0
 70
     0
 62
     7
  6
CONTINUOUS
  0
LAYER
  5
5E
330
2
100
AcDbSymbolTableRecord
100
AcDbLayerTableRecord
  2
SCALE
 70
     0
 62
     7
  6
CONTINUOUS
  0
LAYER
  5
64
330
2
100
AcDbSymbolTableRecord
100
AcDbLayerTableRecord
  2
_TRANSLATION
 70
     1
 62
    -7
  6
CONTINUOUS
  0
LAYER
  5
65
330
2
100
AcDbSymbolTableRecord
100
AcDbLayerTableRecord
  2
0-CENTER
 70
     0
 62
     7
  6
CONTINUOUS
  0
LAYER
  5
67
330
2
100
AcDbSymbolTableRecord
100
AcDbLayerTableRecord
  2
PHANTOM
 70
     0
 62
     7
  6
CONTINUOUS
  0
LAYER
  5
69
330
2
100
AcDbSymbolTableRecord
100
AcDbLayerTableRecord
  2
0-HIDDEN
 70
     0
 62
     7
  6
CONTINUOUS
  0
LAYER
  5
6B
330
2
100
AcDbSymbolTableRecord
100
AcDbLayerTableRecord
  2
0SM
 70
     0
 62
     7
  6
CONTINUOUS
  0
LAYER
  5
71
330
2
100
AcDbSymbolTableRecord
100
AcDbLayerTableRecord
  2
1-NARROW
 70
     0
 62
     7
  6
CONTINUOUS
  0
LAYER
  5
E7
330
2
100
AcDbSymbolTableRecord
100
AcDbLayerTableRecord
  2
OSM-SCALE
 70
     0
 62
     7
  6
CONTINUOUS
  0
LAYER
  5
F1
330
2
100
AcDbSymbolTableRecord
100
AcDbLayerTableRecord
  2
109_001_SEP-0004
 70
     0
 62
     7
  6
CONTINUOUS
  0
LAYER
  5
F2
330
2
100
AcDbSymbolTableRecord
100
AcDbLayerTableRecord
  2
108_001_SEP-0004
 70
     0
 62
     7
  6
CONTINUOUS
  0
LAYER
  5
F3
330
2
100
AcDbSymbolTableRecord
100
AcDbLayerTableRecord
  2
107_001_SEP-0004
 70
     0
 62
     7
  6
CONTINUOUS
  0
LAYER
  5
F4
330
2
100
AcDbSymbolTableRecord
100
AcDbLayerTableRecord
  2
106_001_SEP-0004
 70
     0
 62
     7
  6
CONTINUOUS
  0
LAYER
  5
F5
330
2
100
AcDbSymbolTableRecord
100
AcDbLayerTableRecord
  2
105_001_SEP-0004
 70
     0
 62
     7
  6
CONTINUOUS
  0
LAYER
  5
F6
330
2
100
AcDbSymbolTableRecord
100
AcDbLayerTableRecord
  2
110_001_SEP-0004
 70
     0
 62
     7
  6
CONTINUOUS
  0
LAYER
  5
F7
330
2
100
AcDbSymbolTableRecord
100
AcDbLayerTableRecord
  2
113_001_SEP-0004
 70
     0
 62
     7
  6
CONTINUOUS
  0
LAYER
  5
F8
330
2
100
AcDbSymbolTableRecord
100
AcDbLayerTableRecord
  2
114_001_SEP-0004
 70
     0
 62
     7
  6
CONTINUOUS
  0
LAYER
  5
F9
330
2
100
AcDbSymbolTableRecord
100
AcDbLayerTableRecord
  2
115_001_SEP-0004
 70
     0
 62
     7
  6
CONTINUOUS
  0
LAYER
  5
FA
330
2
100
AcDbSymbolTableRecord
100
AcDbLayerTableRecord
  2
116_001_SEP-0004
 70
     0
 62
     7
  6
CONTINUOUS
  0
LAYER
  5
FB
330
2
100
AcDbSymbolTableRecord
100
AcDbLayerTableRecord
  2
117_001_SEP-0004
 70
     0
 62
     7
  6
CONTINUOUS
  0
LAYER
  5
FC
330
2
100
AcDbSymbolTableRecord
100
AcDbLayerTableRecord
  2
118_001_SEP-0004
 70
     0
 62
     7
  6
CONTINUOUS
  0
LAYER
  5
FD
330
2
100
AcDbSymbolTableRecord
100
AcDbLayerTableRecord
  2
119_001_SEP-0004
 70
     0
 62
     7
  6
CONTINUOUS
  0
LAYER
  5
FE
330
2
100
AcDbSymbolTableRecord
100
AcDbLayerTableRecord
  2
138_001_SEP-0004
 70
     0
 62
     7
  6
CONTINUOUS
  0
LAYER
  5
1F5
330
2
100
AcDbSymbolTableRecord
100
AcDbLayerTableRecord
  2
DEFAULT
 70
     0
 62
     7
  6
CONTINUOUS
  0
ENDTAB
  0
TABLE
  2
STYLE
  5
3
330
0
100
AcDbSymbolTable
 70
     2
  0
STYLE
  5
11
330
3
100
AcDbSymbolTableRecord
100
AcDbTextStyleTableRecord
  2
STANDARD
 70
     0
 40
0.0
 41
1.0
 50
0.0
 71
     0
 42
2.5
  3
txt
  4

  0
STYLE
  5
5D
330
3
100
AcDbSymbolTableRecord
100
AcDbTextStyleTableRecord
  2
SEACAD_ARIAL_TTF
 70
     0
 40
0.0
 41
1.0
 50
0.0
 71
     0
 42
0.2
  3
arial.ttf
  4

  0
ENDTAB
  0
TABLE
  2
VIEW
  5
6
330
0
100
AcDbSymbolTable
 70
     0
  0
ENDTAB
  0
TABLE
  2
UCS
  5
7
330
0
100
AcDbSymbolTable
 70
     0
  0
ENDTAB
  0
TABLE
  2
APPID
  5
9
330
0
100
AcDbSymbolTable
 70
     1
  0
APPID
  5
12
330
9
100
AcDbSymbolTableRecord
100
AcDbRegAppTableRecord
  2
ACAD
 70
     0
  0
ENDTAB
  0
TABLE
  2
DIMSTYLE
  5
A
330
0
100
AcDbSymbolTable
 70
     1
  0
DIMSTYLE
105
27
330
A
100
AcDbSymbolTableRecord
100
AcDbDimStyleTableRecord
  2
ISO-25
 70
     0
  3

  4

  5

  6

  7

 40
1.0
 41
2.5
 42
0.625
 43
3.75
 44
1.25
 45
0.0
 46
0.0
 47
0.0
 48
0.0
140
2.5
141
2.5
142
0.0
143
0.0393700787
144
1.0
145
0.0
146
1.0
147
0.625
 71
     0
 72
     0
 73
     0
 74
     0
 75
     0
 76
     0
 77
     1
 78
     8
170
     0
171
     3
172
     1
173
     0
174
     0
175
     0
176
     0
177
     0
178
     0
270
     2
271
     2
272
     2
273
     2
274
     3
340
11
275
     0
280
     0
281
     0
282
     0
283
     0
284
     8
285
     0
286
     0
287
     3
288
     0
  0
ENDTAB
  0
TABLE
  2
BLOCK_RECORD
  5
1
330
0
100
AcDbSymbolTable
 70
    28
  0
BLOCK_RECORD
  5
1F
330
1
100
AcDbSymbolTableRecord
100
AcDbBlockTableRecord
  2
*MODEL_SPACE
  0
BLOCK_RECORD
  5
1B
330
1
100
AcDbSymbolTableRecord
100
AcDbBlockTableRecord
  2
*PAPER_SPACE
  0
BLOCK_RECORD
  5
5F
330
1
100
AcDbSymbolTableRecord
100
AcDbBlockTableRecord
  2
SEANNOT_GROUP
  0
BLOCK_RECORD
  5
6C
330
1
100
AcDbSymbolTableRecord
100
AcDbBlockTableRecord
  2
SEANNOT_GROUP1
  0
BLOCK_RECORD
  5
72
330
1
100
AcDbSymbolTableRecord
100
AcDbBlockTableRecord
  2
SEANNOT_GROUP2
  0
BLOCK_RECORD
  5
77
330
1
100
AcDbSymbolTableRecord
100
AcDbBlockTableRecord
  2
SEANNOT_GROUP3
  0
BLOCK_RECORD
  5
7C
330
1
100
AcDbSymbolTableRecord
100
AcDbBlockTableRecord
  2
SEANNOT_GROUP4
  0
BLOCK_RECORD
  5
82
330
1
100
AcDbSymbolTableRecord
100
AcDbBlockTableRecord
  2
SEANNOT_GROUP5
  0
BLOCK_RECORD
  5
87
330
1
100
AcDbSymbolTableRecord
100
AcDbBlockTableRecord
  2
GDIMGGROUP
  0
BLOCK_RECORD
  5
90
330
1
100
AcDbSymbolTableRecord
100
AcDbBlockTableRecord
  2
GDIMGGROUP1
  0
BLOCK_RECORD
  5
99
330
1
100
AcDbSymbolTableRecord
100
AcDbBlockTableRecord
  2
GDIMGGROUP2
  0
BLOCK_RECORD
  5
A2
330
1
100
AcDbSymbolTableRecord
100
AcDbBlockTableRecord
  2
GDIMGGROUP3
  0
BLOCK_RECORD
  5
AD
330
1
100
AcDbSymbolTableRecord
100
AcDbBlockTableRecord
  2
GDIMGGROUP4
  0
BLOCK_RECORD
  5
B8
330
1
100
AcDbSymbolTableRecord
100
AcDbBlockTableRecord
  2
SE
  0
BLOCK_RECORD
  5
BD
330
1
100
AcDbSymbolTableRecord
100
AcDbBlockTableRecord
  2
SE1
  0
BLOCK_RECORD
  5
C2
330
1
100
AcDbSymbolTableRecord
100
AcDbBlockTableRecord
  2
SE2
  0
BLOCK_RECORD
  5
C6
330
1
100
AcDbSymbolTableRecord
100
AcDbBlockTableRecord
  2
SE3
  0
BLOCK_RECORD
  5
CA
330
1
100
AcDbSymbolTableRecord
100
AcDbBlockTableRecord
  2
GDIMGGROUP5
  0
BLOCK_RECORD
  5
D3
330
1
100
AcDbSymbolTableRecord
100
AcDbBlockTableRecord
  2
SE4
  0
BLOCK_RECORD
  5
D8
330
1
100
AcDbSymbolTableRecord
100
AcDbBlockTableRecord
  2
GDIMGGROUP6
  0
BLOCK_RECORD
  5
E2
330
1
100
AcDbSymbolTableRecord
100
AcDbBlockTableRecord
  2
SE5
  0
BLOCK_RECORD
  5
E8
330
1
100
AcDbSymbolTableRecord
100
AcDbBlockTableRecord
  2
GDIMGGROUP7
  0
BLOCK_RECORD
  5
FF
330
1
100
AcDbSymbolTableRecord
100
AcDbBlockTableRecord
  2
SE6
  0
BLOCK_RECORD
  5
1F6
330
1
100
AcDbSymbolTableRecord
100
AcDbBlockTableRecord
  2
GDIMGGROUP8
  0
BLOCK_RECORD
  5
200
330
1
100
AcDbSymbolTableRecord
100
AcDbBlockTableRecord
  2
GDIMGGROUP9
  0
BLOCK_RECORD
  5
20C
330
1
100
AcDbSymbolTableRecord
100
AcDbBlockTableRecord
  2
GDIMGGROUP10
  0
BLOCK_RECORD
  5
216
330
1
100
AcDbSymbolTableRecord
100
AcDbBlockTableRecord
  2
GDIMGGROUP11
  0
BLOCK_RECORD
  5
21F
330
1
100
AcDbSymbolTableRecord
100
AcDbBlockTableRecord
  2
PIPE_KIT
  0
BLOCK_RECORD
  5
380
330
1
100
AcDbSymbolTableRecord
100
AcDbBlockTableRecord
  2
高天井用パイプ
  0
ENDTAB
  0
ENDSEC
  0
SECTION
  2
BLOCKS
  0
BLOCK
  5
20
330
1F
100
AcDbEntity
  8
0
100
AcDbBlockBegin
  2
*MODEL_SPACE
 70
     0
 10
0.0
 20
0.0
 30
0.0
  3
*MODEL_SPACE
  1

  0
ENDBLK
  5
21
330
1F
100
AcDbEntity
  8
0
100
AcDbBlockEnd
  0
BLOCK
  5
1C
330
1B
100
AcDbEntity
 67
     1
  8
0
100
AcDbBlockBegin
  2
*PAPER_SPACE
 70
     0
 10
0.0
 20
0.0
 30
0.0
  3
*PAPER_SPACE
  1

  0
ENDBLK
  5
1D
330
1B
100
AcDbEntity
 67
     1
  8
0
100
AcDbBlockEnd
  0
BLOCK
  5
62
330
5F
100
AcDbEntity
  8
0
100
AcDbBlockBegin
  2
SEANNOT_GROUP
 70
     0
 10
0.0
 20
0.0
 30
0.0
  3
SEANNOT_GROUP
  1

  0
LINE
  5
60
330
5F
100
AcDbEntity
  8
SCALE
  6
CONTINUOUS
 62
     7
100
AcDbLine
 10
643.1784471426
 20
-1109.5311791747
 30
0.0
 11
730.9086814923
 21
-1055.1229869813
 31
0.0
  0
POLYLINE
  5
61
330
5F
100
AcDbEntity
  8
SCALE
  6
CONTINUOUS
 62
     7
100
AcDb2dPolyline
 66
     1
 10
0.0
 20
0.0
 30
0.0
  0
VERTEX
  5
38B
330
61
100
AcDbEntity
  8
SCALE
  6
CONTINUOUS
 62
     7
100
AcDbVertex
100
AcDb2dVertex
 10
719.1877192708
 20
-1059.9405929391
 30
0.0
  0
VERTEX
  5
38C
330
61
100
AcDbEntity
  8
SCALE
  6
CONTINUOUS
 62
     7
100
AcDbVertex
100
AcDb2dVertex
 10
730.9086814923
 20
-1055.1229869813
 30
0.0
  0
VERTEX
  5
38D
330
61
100
AcDbEntity
  8
SCALE
  6
CONTINUOUS
 62
     7
100
AcDbVertex
100
AcDb2dVertex
 10
721.3837515934
 20
-1063.4815749592
 30
0.0
  0
SEQEND
  5
38E
330
61
100
AcDbEntity
  8
SCALE
  6
CONTINUOUS
 62
     7
  0
ENDBLK
  5
63
330
5F
100
AcDbEntity
  8
0
100
AcDbBlockEnd
  0
BLOCK
  5
6F
330
6C
100
AcDbEntity
  8
0
100
AcDbBlockBegin
  2
SEANNOT_GROUP1
 70
     0
 10
0.0
 20
0.0
 30
0.0
  3
SEANNOT_GROUP1
  1

  0
LINE
  5
6D
330
6C
100
AcDbEntity
  8
SCALE
  6
CONTINUOUS
 62
     7
100
AcDbLine
 10
1103.5594359924
 20
-1458.9303905049
 30
0.0
 11
1082.9615350473
 21
-1406.5929712579
 31
0.0
  0
POLYLINE
  5
6E
330
6C
100
AcDbEntity
  8
SCALE
  6
CONTINUOUS
 62
     7
100
AcDb2dPolyline
 66
     1
 10
0.0
 20
0.0
 30
0.0
  0
VERTEX
  5
38F
330
6E
100
AcDbEntity
  8
SCALE
  6
CONTINUOUS
 62
     7
100
AcDbVertex
100
AcDb2dVertex
 10
1085.6006668411
 20
-1418.9875372422
 30
0.0
  0
VERTEX
  5
390
330
6E
100
AcDbEntity
  8
SCALE
  6
CONTINUOUS
 62
     7
100
AcDbVertex
100
AcDb2dVertex
 10
1082.9615350473
 20
-1406.5929712579
 30
0.0
  0
VERTEX
  5
391
330
6E
100
AcDbEntity
  8
SCALE
  6
CONTINUOUS
 62
     7
100
AcDbVertex
100
AcDb2dVertex
 10
1089.4778703066
 20
-1417.4616260666
 30
0.0
  0
SEQEND
  5
392
330
6E
100
AcDbEntity
  8
SCALE
  6
CONTINUOUS
 62
     7
  0
ENDBLK
  5
70
330
6C
100
AcDbEntity
  8
0
100
AcDbBlockEnd
  0
BLOCK
  5
75
330
72
100
AcDbEntity
  8
0
100
AcDbBlockBegin
  2
SEANNOT_GROUP2
 70
     0
 10
0.0
 20
0.0
 30
0.0
  3
SEANNOT_GROUP2
  1

  0
LINE
  5
73
330
72
100
AcDbEntity
  8
SCALE
  6
CONTINUOUS
 62
     7
100
AcDbLine
 10
1103.5594359924
 20
-1056.8632638348
 30
0.0
 11
1082.9615350473
 21
-1004.5258445878
 31
0.0
  0
POLYLINE
  5
74
330
72
100
AcDbEntity
  8
SCALE
  6
CONTINUOUS
 62
     7
100
AcDb2dPolyline
 66
     1
 10
0.0
 20
0.0
 30
0.0
  0
VERTEX
  5
393
330
74
100
AcDbEntity
  8
SCALE
  6
CONTINUOUS
 62
     7
100
AcDbVertex
100
AcDb2dVertex
 10
1085.6006668411
 20
-1016.9204105721
 30
0.0
  0
VERTEX
  5
394
330
74
100
AcDbEntity
  8
SCALE
  6
CONTINUOUS
 62
     7
100
AcDbVertex
100
AcDb2dVertex
 10
1082.9615350473
 20
-1004.5258445878
 30
0.0
  0
VERTEX
  5
395
330
74
100
AcDbEntity
  8
SCALE
  6
CONTINUOUS
 62
     7
100
AcDbVertex
100
AcDb2dVertex
 10
1089.4778703066
 20
-1015.3944993966
 30
0.0
  0
SEQEND
  5
396
330
74
100
AcDbEntity
  8
SCALE
  6
CONTINUOUS
 62
     7
  0
ENDBLK
  5
76
330
72
100
AcDbEntity
  8
0
100
AcDbBlockEnd
  0
BLOCK
  5
7A
330
77
100
AcDbEntity
  8
0
100
AcDbBlockBegin
  2
SEANNOT_GROUP3
 70
     0
 10
0.0
 20
0.0
 30
0.0
  3
SEANNOT_GROUP3
  1

  0
LINE
  5
78
330
77
100
AcDbEntity
  8
SCALE
  6
CONTINUOUS
 62
     7
100
AcDbLine
 10
1921.6337541368
 20
-1032.9921554731
 30
0.0
 11
1851.8168284579
 21
-1076.5276864108
 31
0.0
  0
POLYLINE
  5
79
330
77
100
AcDbEntity
  8
SCALE
  6
CONTINUOUS
 62
     7
100
AcDb2dPolyline
 66
     1
 10
0.0
 20
0.0
 30
0.0
  0
VERTEX
  5
397
330
79
100
AcDbEntity
  8
SCALE
  6
CONTINUOUS
 62
     7
100
AcDbVertex
100
AcDb2dVertex
 10
1863.5259752563
 20
-1071.6814338567
 30
0.0
  0
VERTEX
  5
398
330
79
100
AcDbEntity
  8
SCALE
  6
CONTINUOUS
 62
     7
100
AcDbVertex
100
AcDb2dVertex
 10
1851.8168284579
 20
-1076.5276864108
 30
0.0
  0
VERTEX
  5
399
330
79
100
AcDbEntity
  8
SCALE
  6
CONTINUOUS
 62
     7
100
AcDbVertex
100
AcDb2dVertex
 10
1861.3212908172
 20
-1068.1458323304
 30
0.0
  0
SEQEND
  5
39A
330
79
100
AcDbEntity
  8
SCALE
  6
CONTINUOUS
 62
     7
  0
ENDBLK
  5
7B
330
77
100
AcDbEntity
  8
0
100
AcDbBlockEnd
  0
BLOCK
  5
7F
330
7C
100
AcDbEntity
  8
0
100
AcDbBlockBegin
  2
SEANNOT_GROUP4
 70
     0
 10
0.0
 20
0.0
 30
0.0
  3
SEANNOT_GROUP4
  1

  0
LINE
  5
7D
330
7C
100
AcDbEntity
  8
SCALE
  6
CONTINUOUS
 62
     7
100
AcDbLine
 10
1921.0999459242
 20
-928.4119540871
 30
0.0
 11
1860.0041659795
 21
-974.9774338791
 31
0.0
  0
POLYLINE
  5
7E
330
7C
100
AcDbEntity
  8
SCALE
  6
CONTINUOUS
 62
     7
100
AcDb2dPolyline
 66
     1
 10
0.0
 20
0.0
 30
0.0
  0
VERTEX
  5
39B
330
7E
100
AcDbEntity
  8
SCALE
  6
CONTINUOUS
 62
     7
100
AcDbVertex
100
AcDb2dVertex
 10
1871.2086527352
 20
-969.0571501778
 30
0.0
  0
VERTEX
  5
39C
330
7E
100
AcDbEntity
  8
SCALE
  6
CONTINUOUS
 62
     7
100
AcDbVertex
100
AcDb2dVertex
 10
1860.0041659795
 20
-974.9774338791
 30
0.0
  0
VERTEX
  5
39D
330
7E
100
AcDbEntity
  8
SCALE
  6
CONTINUOUS
 62
     7
100
AcDbVertex
100
AcDb2dVertex
 10
1868.6829127913
 20
-965.7432779166
 30
0.0
  0
SEQEND
  5
39E
330
7E
100
AcDbEntity
  8
SCALE
  6
CONTINUOUS
 62
     7
  0
ENDBLK
  5
80
330
7C
100
AcDbEntity
  8
0
100
AcDbBlockEnd
  0
BLOCK
  5
85
330
82
100
AcDbEntity
  8
0
100
AcDbBlockBegin
  2
SEANNOT_GROUP5
 70
     0
 10
0.0
 20
0.0
 30
0.0
  3
SEANNOT_GROUP5
  1

  0
LINE
  5
83
330
82
100
AcDbEntity
  8
0
  6
CENTER2
 62
     7
100
AcDbLine
 10
756.3137425356
 20
-1725.6697751186
 30
0.0
 11
727.5137430303
 21
-1725.6697751186
 31
0.0
  0
LINE
  5
84
330
82
100
AcDbEntity
  8
0
  6
CENTER2
 62
     7
100
AcDbLine
 10
741.9137427829
 20
-1711.269775366
 30
0.0
 11
741.9137427829
 21
-1740.0697748713
 31
0.0
  0
ENDBLK
  5
86
330
82
100
AcDbEntity
  8
0
100
AcDbBlockEnd
  0
BLOCK
  5
8E
330
87
100
AcDbEntity
  8
0
100
AcDbBlockBegin
  2
GDIMGGROUP
 70
     0
 10
0.0
 20
0.0
 30
0.0
  3
GDIMGGROUP
  1

  0
POLYLINE
  5
88
330
87
100
AcDbEntity
  8
SCALE
  6
CONTINUOUS
 62
     7
100
AcDb2dPolyline
 66
     1
 10
0.0
 20
0.0
 30
0.0
  0
VERTEX
  5
39F
330
88
100
AcDbEntity
  8
SCALE
  6
CONTINUOUS
 62
     7
100
AcDbVertex
100
AcDb2dVertex
 10
1036.112337864
 20
-1019.122986646
 30
0.0
  0
VERTEX
  5
3A0
330
88
100
AcDbEntity
  8
SCALE
  6
CONTINUOUS
 62
     7
100
AcDbVertex
100
AcDb2dVertex
 10
1038.6123378081
 20
-1004.1229869813
 30
0.0
  0
VERTEX
  5
3A1
330
88
100
AcDbEntity
  8
SCALE
  6
CONTINUOUS
 62
     7
100
AcDbVertex
100
AcDb2dVertex
 10
1041.1123377523
 20
-1019.122986646
 30
0.0
  0
SEQEND
  5
3A2
330
88
100
AcDbEntity
  8
SCALE
  6
CONTINUOUS
 62
     7
  0
POLYLINE
  5
89
330
87
100
AcDbEntity
  8
SCALE
  6
CONTINUOUS
 62
     7
100
AcDb2dPolyline
 66
     1
 10
0.0
 20
0.0
 30
0.0
  0
VERTEX
  5
3A3
330
89
100
AcDbEntity
  8
SCALE
  6
CONTINUOUS
 62
     7
100
AcDbVertex
100
AcDb2dVertex
 10
1036.5290044438
 20
-1666.2086272255
 30
0.0
  0
VERTEX
  5
3A4
330
89
100
AcDbEntity
  8
SCALE
  6
CONTINUOUS
 62
     7
100
AcDbVertex
100
AcDb2dVertex
 10
1038.6123378081
 20
-1678.7086274117
 30
0.0
  0
VERTEX
  5
3A5
330
89
100
AcDbEntity
  8
SCALE
  6
CONTINUOUS
 62
     7
100
AcDbVertex
100
AcDb2dVertex
 10
1040.6956711725
 20
-1666.2086272255
 30
0.0
  0
SEQEND
  5
3A6
330
89
100
AcDbEntity
  8
SCALE
  6
CONTINUOUS
 62
     7
  0
LINE
  5
8A
330
87
100
AcDbEntity
  8
SCALE
  6
CONTINUOUS
 62
     7
100
AcDbLine
 10
879.4086813247
 20
-1004.1229869813
 30
0.0
 11
1046.1123376405
 21
-1004.1229869813
 31
0.0
  0
LINE
  5
8B
330
87
100
AcDbEntity
  8
SCALE
  6
CONTINUOUS
 62
     7
100
AcDbLine
 10
773.7086813247
 20
-1678.7086074577
 30
0.0
 11
1046.1123376405
 21
-1678.7086074577
 31
0.0
  0
LINE
  5
8C
330
87
100
AcDbEntity
  8
SCALE
  6
CONTINUOUS
 62
     7
100
AcDbLine
 10
1038.6123378081
 20
-1004.1229869813
 30
0.0
 11
1038.6123378081
 21
-1678.7086274117
 31
0.0
  0
TEXT
  5
8D
330
87
100
AcDbEntity
  8
SCALE
  6
CONTINUOUS
 62
     7
100
AcDbText
 10
1034.8623378081
 20
-1370.7465034542
 30
0.0
 40
15.0
  1
組合せ寸法 L
 50
90.0
  7
SEACAD_ARIAL_TTF
 11
1019.8623378081
 21
-1370.7465034542
 31
0.0
100
AcDbText
 73
     3
  0
ENDBLK
  5
8F
330
87
100
AcDbEntity
  8
0
100
AcDbBlockEnd
  0
BLOCK
  5
97
330
90
100
AcDbEntity
  8
0
100
AcDbBlockBegin
  2
GDIMGGROUP1
 70
     0
 10
0.0
 20
0.0
 30
0.0
  3
GDIMGGROUP1
  1

  0
POLYLINE
  5
91
330
90
100
AcDbEntity
  8
SCALE
  6
CONTINUOUS
 62
     7
100
AcDb2dPolyline
 66
     1
 10
0.0
 20
0.0
 30
0.0
  0
VERTEX
  5
3A7
330
91
100
AcDbEntity
  8
SCALE
  6
CONTINUOUS
 62
     7
100
AcDbVertex
100
AcDb2dVertex
 10
934.2665518886
 20
-1019.122986646
 30
0.0
  0
VERTEX
  5
3A8
330
91
100
AcDbEntity
  8
SCALE
  6
CONTINUOUS
 62
     7
100
AcDbVertex
100
AcDb2dVertex
 10
936.7665518327
 20
-1004.1229869813
 30
0.0
  0
VERTEX
  5
3A9
330
91
100
AcDbEntity
  8
SCALE
  6
CONTINUOUS
 62
     7
100
AcDbVertex
100
AcDb2dVertex
 10
939.2665517768
 20
-1019.122986646
 30
0.0
  0
SEQEND
  5
3AA
330
91
100
AcDbEntity
  8
SCALE
  6
CONTINUOUS
 62
     7
  0
POLYLINE
  5
92
330
90
100
AcDbEntity
  8
SCALE
  6
CONTINUOUS
 62
     7
100
AcDb2dPolyline
 66
     1
 10
0.0
 20
0.0
 30
0.0
  0
VERTEX
  5
3AB
330
92
100
AcDbEntity
  8
SCALE
  6
CONTINUOUS
 62
     7
100
AcDbVertex
100
AcDb2dVertex
 10
934.6832184683
 20
-1097.6229855433
 30
0.0
  0
VERTEX
  5
3AC
330
92
100
AcDbEntity
  8
SCALE
  6
CONTINUOUS
 62
     7
100
AcDbVertex
100
AcDb2dVertex
 10
936.7665518327
 20
-1110.1229857296
 30
0.0
  0
VERTEX
  5
3AD
330
92
100
AcDbEntity
  8
SCALE
  6
CONTINUOUS
 62
     7
100
AcDbVertex
100
AcDb2dVertex
 10
938.8498851971
 20
-1097.6229855433
 30
0.0
  0
SEQEND
  5
3AE
330
92
100
AcDbEntity
  8
SCALE
  6
CONTINUOUS
 62
     7
  0
LINE
  5
93
330
90
100
AcDbEntity
  8
SCALE
  6
CONTINUOUS
 62
     7
100
AcDbLine
 10
879.4086813247
 20
-1004.1229869813
 30
0.0
 11
944.266551665
 21
-1004.1229869813
 31
0.0
  0
LINE
  5
94
330
90
100
AcDbEntity
  8
SCALE
  6
CONTINUOUS
 62
     7
100
AcDbLine
 10
760.9086813247
 20
-1110.1229869813
 30
0.0
 11
944.266551665
 21
-1110.1229869813
 31
0.0
  0
LINE
  5
95
330
90
100
AcDbEntity
  8
SCALE
  6
CONTINUOUS
 62
     7
100
AcDbLine
 10
936.7665518327
 20
-1004.1229869813
 30
0.0
 11
936.7665518327
 21
-1110.1229857296
 31
0.0
  0
TEXT
  5
96
330
90
100
AcDbEntity
  8
SCALE
  6
CONTINUOUS
 62
     7
100
AcDbText
 10
933.0165518327
 20
-1071.8502590827
 30
0.0
 40
15.0
  1
106
 50
90.0
  7
SEACAD_ARIAL_TTF
 11
918.0165518327
 21
-1071.8502590827
 31
0.0
100
AcDbText
 73
     3
  0
ENDBLK
  5
98
330
90
100
AcDbEntity
  8
0
100
AcDbBlockEnd
  0
BLOCK
  5
A0
330
99
100
AcDbEntity
  8
0
100
AcDbBlockBegin
  2
GDIMGGROUP2
 70
     0
 10
0.0
 20
0.0
 30
0.0
  3
GDIMGGROUP2
  1

  0
POLYLINE
  5
9A
330
99
100
AcDbEntity
  8
SCALE
  6
CONTINUOUS
 62
     7
100
AcDb2dPolyline
 66
     1
 10
0.0
 20
0.0
 30
0.0
  0
VERTEX
  5
3AF
330
9A
100
AcDbEntity
  8
SCALE
  6
CONTINUOUS
 62
     7
100
AcDbVertex
100
AcDb2dVertex
 10
830.397436387
 20
-1583.7086071224
 30
0.0
  0
VERTEX
  5
3B0
330
9A
100
AcDbEntity
  8
SCALE
  6
CONTINUOUS
 62
     7
100
AcDbVertex
100
AcDb2dVertex
 10
832.8974363312
 20
-1568.7086074577
 30
0.0
  0
VERTEX
  5
3B1
330
9A
100
AcDbEntity
  8
SCALE
  6
CONTINUOUS
 62
     7
100
AcDbVertex
100
AcDb2dVertex
 10
835.3974362753
 20
-1583.7086071224
 30
0.0
  0
SEQEND
  5
3B2
330
9A
100
AcDbEntity
  8
SCALE
  6
CONTINUOUS
 62
     7
  0
POLYLINE
  5
9B
330
99
100
AcDbEntity
  8
SCALE
  6
CONTINUOUS
 62
     7
100
AcDb2dPolyline
 66
     1
 10
0.0
 20
0.0
 30
0.0
  0
VERTEX
  5
3B3
330
9B
100
AcDbEntity
  8
SCALE
  6
CONTINUOUS
 62
     7
100
AcDbVertex
100
AcDb2dVertex
 10
830.8141029668
 20
-1666.2086066754
 30
0.0
  0
VERTEX
  5
3B4
330
9B
100
AcDbEntity
  8
SCALE
  6
CONTINUOUS
 62
     7
100
AcDbVertex
100
AcDb2dVertex
 10
832.8974363312
 20
-1678.7086068616
 30
0.0
  0
VERTEX
  5
3B5
330
9B
100
AcDbEntity
  8
SCALE
  6
CONTINUOUS
 62
     7
100
AcDbVertex
100
AcDb2dVertex
 10
834.9807696955
 20
-1666.2086066754
 30
0.0
  0
SEQEND
  5
3B6
330
9B
100
AcDbEntity
  8
SCALE
  6
CONTINUOUS
 62
     7
  0
LINE
  5
9C
330
99
100
AcDbEntity
  8
SCALE
  6
CONTINUOUS
 62
     7
100
AcDbLine
 10
776.4373011805
 20
-1568.7086074577
 30
0.0
 11
840.3974361635
 21
-1568.7086074577
 31
0.0
  0
LINE
  5
9D
330
99
100
AcDbEntity
  8
SCALE
  6
CONTINUOUS
 62
     7
100
AcDbLine
 10
773.7086813247
 20
-1678.7086074577
 30
0.0
 11
840.3974361635
 21
-1678.7086074577
 31
0.0
  0
LINE
  5
9E
330
99
100
AcDbEntity
  8
SCALE
  6
CONTINUOUS
 62
     7
100
AcDbLine
 10
832.8974363312
 20
-1568.7086074577
 30
0.0
 11
832.8974363312
 21
-1678.7086068616
 31
0.0
  0
TEXT
  5
9F
330
99
100
AcDbEntity
  8
SCALE
  6
CONTINUOUS
 62
     7
100
AcDbText
 10
829.1474363312
 20
-1638.4358798869
 30
0.0
 40
15.0
  1
110
 50
90.0
  7
SEACAD_ARIAL_TTF
 11
814.1474363312
 21
-1638.4358798869
 31
0.0
100
AcDbText
 73
     3
  0
ENDBLK
  5
A1
330
99
100
AcDbEntity
  8
0
100
AcDbBlockEnd
  0
BLOCK
  5
AB
330
A2
100
AcDbEntity
  8
0
100
AcDbBlockBegin
  2
GDIMGGROUP3
 70
     0
 10
0.0
 20
0.0
 30
0.0
  3
GDIMGGROUP3
  1

  0
POLYLINE
  5
A3
330
A2
100
AcDbEntity
  8
SCALE
  6
CONTINUOUS
 62
     7
100
AcDb2dPolyline
 66
     1
 10
0.0
 20
0.0
 30
0.0
  0
VERTEX
  5
3B7
330
A3
100
AcDbEntity
  8
SCALE
  6
CONTINUOUS
 62
     7
100
AcDbVertex
100
AcDb2dVertex
 10
726.9086811571
 20
-1470.0008854789
 30
0.0
  0
VERTEX
  5
3B8
330
A3
100
AcDbEntity
  8
SCALE
  6
CONTINUOUS
 62
     7
100
AcDbVertex
100
AcDb2dVertex
 10
711.9086814923
 20
-1472.500885423
 30
0.0
  0
VERTEX
  5
3B9
330
A3
100
AcDbEntity
  8
SCALE
  6
CONTINUOUS
 62
     7
100
AcDbVertex
100
AcDb2dVertex
 10
726.9086811571
 20
-1475.0008853672
 30
0.0
  0
SEQEND
  5
3BA
330
A3
100
AcDbEntity
  8
SCALE
  6
CONTINUOUS
 62
     7
  0
POLYLINE
  5
A4
330
A2
100
AcDbEntity
  8
SCALE
  6
CONTINUOUS
 62
     7
100
AcDb2dPolyline
 66
     1
 10
0.0
 20
0.0
 30
0.0
  0
VERTEX
  5
3BB
330
A4
100
AcDbEntity
  8
SCALE
  6
CONTINUOUS
 62
     7
100
AcDbVertex
100
AcDb2dVertex
 10
759.4086813061
 20
-1470.4175520587
 30
0.0
  0
VERTEX
  5
3BC
330
A4
100
AcDbEntity
  8
SCALE
  6
CONTINUOUS
 62
     7
100
AcDbVertex
100
AcDb2dVertex
 10
771.9086814923
 20
-1472.500885423
 30
0.0
  0
VERTEX
  5
3BD
330
A4
100
AcDbEntity
  8
SCALE
  6
CONTINUOUS
 62
     7
100
AcDbVertex
100
AcDb2dVertex
 10
759.4086813061
 20
-1474.5842187874
 30
0.0
  0
SEQEND
  5
3BE
330
A4
100
AcDbEntity
  8
SCALE
  6
CONTINUOUS
 62
     7
  0
LINE
  5
A5
330
A2
100
AcDbEntity
  8
SCALE
  6
CONTINUOUS
 62
     7
100
AcDbLine
 10
711.9086814923
 20
-1441.9225883258
 30
0.0
 11
711.9086814923
 21
-1480.0008852554
 31
0.0
  0
LINE
  5
A6
330
A2
100
AcDbEntity
  8
SCALE
  6
CONTINUOUS
 62
     7
100
AcDbLine
 10
771.9086814923
 20
-1441.8221284956
 30
0.0
 11
771.9086814923
 21
-1480.0008852554
 31
0.0
  0
LINE
  5
A7
330
A2
100
AcDbEntity
  8
SCALE
  6
CONTINUOUS
 62
     7
100
AcDbLine
 10
711.9086814923
 20
-1472.500885423
 30
0.0
 11
1038.9684868856
 21
-1472.500885423
 31
0.0
  0
TEXT
  5
A8
330
A2
100
AcDbEntity
  8
SCALE
  6
CONTINUOUS
 62
     7
100
AcDbText
 10
868.6586830421
 20
-1468.750885423
 30
0.0
 40
15.0
  1
天井開口寸法
  7
SEACAD_ARIAL_TTF
 11
868.6586830421
 21
-1453.750885423
 31
0.0
100
AcDbText
 73
     3
  0
TEXT
  5
A9
330
A2
100
AcDbEntity
  8
SCALE
  6
CONTINUOUS
 62
     7
100
AcDbText
 10
986.4768648602
 20
-1468.750885423
 30
0.0
 40
15.0
  1
O
  7
SEACAD_ARIAL_TTF
 11
986.4768648602
 21
-1453.750885423
 31
0.0
100
AcDbText
 73
     3
  0
TEXT
  5
AA
330
A2
100
AcDbEntity
  8
SCALE
  6
CONTINUOUS
 62
     7
100
AcDbText
 10
1003.5821280181
 20
-1468.750885423
 30
0.0
 40
15.0
  1
60
  7
SEACAD_ARIAL_TTF
 11
1003.5821280181
 21
-1453.750885423
 31
0.0
100
AcDbText
 73
     3
  0
ENDBLK
  5
AC
330
A2
100
AcDbEntity
  8
0
100
AcDbBlockEnd
  0
BLOCK
  5
B6
330
AD
100
AcDbEntity
  8
0
100
AcDbBlockBegin
  2
GDIMGGROUP4
 70
     0
 10
0.0
 20
0.0
 30
0.0
  3
GDIMGGROUP4
  1

  0
POLYLINE
  5
AE
330
AD
100
AcDbEntity
  8
SCALE
  6
CONTINUOUS
 62
     7
100
AcDb2dPolyline
 66
     1
 10
0.0
 20
0.0
 30
0.0
  0
VERTEX
  5
3BF
330
AE
100
AcDbEntity
  8
SCALE
  6
CONTINUOUS
 62
     7
100
AcDbVertex
100
AcDb2dVertex
 10
732.6086811571
 20
-1526.0217618478
 30
0.0
  0
VERTEX
  5
3C0
330
AE
100
AcDbEntity
  8
SCALE
  6
CONTINUOUS
 62
     7
100
AcDbVertex
100
AcDb2dVertex
 10
717.6086814923
 20
-1523.5217619037
 30
0.0
  0
VERTEX
  5
3C1
330
AE
100
AcDbEntity
  8
SCALE
  6
CONTINUOUS
 62
     7
100
AcDbVertex
100
AcDb2dVertex
 10
732.6086811571
 20
-1521.0217619596
 30
0.0
  0
SEQEND
  5
3C2
330
AE
100
AcDbEntity
  8
SCALE
  6
CONTINUOUS
 62
     7
  0
POLYLINE
  5
AF
330
AD
100
AcDbEntity
  8
SCALE
  6
CONTINUOUS
 62
     7
100
AcDb2dPolyline
 66
     1
 10
0.0
 20
0.0
 30
0.0
  0
VERTEX
  5
3C3
330
AF
100
AcDbEntity
  8
SCALE
  6
CONTINUOUS
 62
     7
100
AcDbVertex
100
AcDb2dVertex
 10
753.7086813061
 20
-1525.6050952681
 30
0.0
  0
VERTEX
  5
3C4
330
AF
100
AcDbEntity
  8
SCALE
  6
CONTINUOUS
 62
     7
100
AcDbVertex
100
AcDb2dVertex
 10
766.2086814923
 20
-1523.5217619037
 30
0.0
  0
VERTEX
  5
3C5
330
AF
100
AcDbEntity
  8
SCALE
  6
CONTINUOUS
 62
     7
100
AcDbVertex
100
AcDb2dVertex
 10
753.7086813061
 20
-1521.4384285393
 30
0.0
  0
SEQEND
  5
3C6
330
AF
100
AcDbEntity
  8
SCALE
  6
CONTINUOUS
 62
     7
  0
LINE
  5
B0
330
AD
100
AcDbEntity
  8
SCALE
  6
CONTINUOUS
 62
     7
100
AcDbLine
 10
717.6086814923
 20
-1531.2250759733
 30
0.0
 11
717.6086814923
 21
-1516.0217620713
 31
0.0
  0
LINE
  5
B1
330
AD
100
AcDbEntity
  8
SCALE
  6
CONTINUOUS
 62
     7
100
AcDbLine
 10
766.2086814923
 20
-1531.2250759733
 30
0.0
 11
766.2086814923
 21
-1516.0217620713
 31
0.0
  0
LINE
  5
B2
330
AD
100
AcDbEntity
  8
SCALE
  6
CONTINUOUS
 62
     7
100
AcDbLine
 10
717.6086814923
 20
-1523.5217619037
 30
0.0
 11
1005.8464022203
 21
-1523.5217619037
 31
0.0
  0
TEXT
  5
B3
330
AD
100
AcDbEntity
  8
SCALE
  6
CONTINUOUS
 62
     7
100
AcDbText
 10
855.1729611678
 20
-1519.7717619037
 30
0.0
 40
15.0
  1
内パイプ
  7
SEACAD_ARIAL_TTF
 11
855.1729611678
 21
-1504.7717619037
 31
0.0
100
AcDbText
 73
     3
  0
TEXT
  5
B4
330
AD
100
AcDbEntity
  8
SCALE
  6
CONTINUOUS
 62
     7
100
AcDbText
 10
933.7184157133
 20
-1519.7717619037
 30
0.0
 40
15.0
  1
O
  7
SEACAD_ARIAL_TTF
 11
933.7184157133
 21
-1504.7717619037
 31
0.0
100
AcDbText
 73
     3
  0
TEXT
  5
B5
330
AD
100
AcDbEntity
  8
SCALE
  6
CONTINUOUS
 62
     7
100
AcDbText
 10
950.8236788712
 20
-1519.7717619037
 30
0.0
 40
15.0
  1
48.6
  7
SEACAD_ARIAL_TTF
 11
950.8236788712
 21
-1504.7717619037
 31
0.0
100
AcDbText
 73
     3
  0
ENDBLK
  5
B7
330
AD
100
AcDbEntity
  8
0
100
AcDbBlockEnd
  0
BLOCK
  5
BB
330
B8
100
AcDbEntity
  8
0
100
AcDbBlockBegin
  2
SE
 70
     0
 10
0.0
 20
0.0
 30
0.0
  3
SE
  1

  0
ARC
  5
B9
330
B8
100
AcDbEntity
  8
SCALE
  6
CONTINUOUS
 62
     7
100
AcDbCircle
 10
754.0586814923
 20
-1499.2375233056
 30
0.0
 40
13.7699999999942
100
AcDbArc
 50
208.0724869359
 51
331.9275130641
  0
ARC
  5
BA
330
B8
100
AcDbEntity
  8
SCALE
  6
CONTINUOUS
 62
     7
100
AcDbCircle
 10
729.7586814923
 20
-1512.1975233056
 30
0.0
 40
13.77000000000601
100
AcDbArc
 50
28.0724869359
 51
151.9275130641
  0
ENDBLK
  5
BC
330
B8
100
AcDbEntity
  8
0
100
AcDbBlockEnd
  0
BLOCK
  5
C0
330
BD
100
AcDbEntity
  8
0
100
AcDbBlockBegin
  2
SE1
 70
     0
 10
0.0
 20
0.0
 30
0.0
  3
SE1
  1

  0
ARC
  5
BE
330
BD
100
AcDbEntity
  8
SCALE
  6
CONTINUOUS
 62
     7
100
AcDbCircle
 10
729.7586814923
 20
-1545.2050758057
 30
0.0
 40
13.7699999999943
100
AcDbArc
 50
28.0724869359
 51
151.9275130641
  0
ARC
  5
BF
330
BD
100
AcDbEntity
  8
SCALE
  6
CONTINUOUS
 62
     7
100
AcDbCircle
 10
754.0586814923
 20
-1532.2450758057
 30
0.0
 40
13.77000000000567
100
AcDbArc
 50
208.0724869359
 51
331.9275130641
  0
ENDBLK
  5
C1
330
BD
100
AcDbEntity
  8
0
100
AcDbBlockEnd
  0
BLOCK
  5
C4
330
C2
100
AcDbEntity
  8
0
100
AcDbBlockBegin
  2
SE2
 70
     0
 10
0.0
 20
0.0
 30
0.0
  3
SE2
  1

  0
ARC
  5
C3
330
C2
100
AcDbEntity
  8
SCALE
  6
CONTINUOUS
 62
     7
100
AcDbCircle
 10
729.7586814923
 20
-1499.2375233056
 30
0.0
 40
13.770000000006
100
AcDbArc
 50
208.0724869359
 51
331.9275130641
  0
ENDBLK
  5
C5
330
C2
100
AcDbEntity
  8
0
100
AcDbBlockEnd
  0
BLOCK
  5
C8
330
C6
100
AcDbEntity
  8
0
100
AcDbBlockBegin
  2
SE3
 70
     0
 10
0.0
 20
0.0
 30
0.0
  3
SE3
  1

  0
ARC
  5
C7
330
C6
100
AcDbEntity
  8
SCALE
  6
CONTINUOUS
 62
     7
100
AcDbCircle
 10
754.0586814923
 20
-1545.2050758057
 30
0.0
 40
13.77000000000558
100
AcDbArc
 50
28.0724869359
 51
151.9275130641
  0
ENDBLK
  5
C9
330
C6
100
AcDbEntity
  8
0
100
AcDbBlockEnd
  0
BLOCK
  5
D1
330
CA
100
AcDbEntity
  8
0
100
AcDbBlockBegin
  2
GDIMGGROUP5
 70
     0
 10
0.0
 20
0.0
 30
0.0
  3
GDIMGGROUP5
  1

  0
POLYLINE
  5
CB
330
CA
100
AcDbEntity
  8
SCALE
  6
CONTINUOUS
 62
     7
100
AcDb2dPolyline
 66
     1
 10
0.0
 20
0.0
 30
0.0
  0
VERTEX
  5
3C7
330
CB
100
AcDbEntity
  8
SCALE
  6
CONTINUOUS
 62
     7
100
AcDbVertex
100
AcDb2dVertex
 10
934.2665610677
 20
-1125.122986646
 30
0.0
  0
VERTEX
  5
3C8
330
CB
100
AcDbEntity
  8
SCALE
  6
CONTINUOUS
 62
     7
100
AcDbVertex
100
AcDb2dVertex
 10
936.7665610118
 20
-1110.1229869813
 30
0.0
  0
VERTEX
  5
3C9
330
CB
100
AcDbEntity
  8
SCALE
  6
CONTINUOUS
 62
     7
100
AcDbVertex
100
AcDb2dVertex
 10
939.2665609559
 20
-1125.122986646
 30
0.0
  0
SEQEND
  5
3CA
330
CB
100
AcDbEntity
  8
SCALE
  6
CONTINUOUS
 62
     7
  0
POLYLINE
  5
CC
330
CA
100
AcDbEntity
  8
SCALE
  6
CONTINUOUS
 62
     7
100
AcDb2dPolyline
 66
     1
 10
0.0
 20
0.0
 30
0.0
  0
VERTEX
  5
3CB
330
CC
100
AcDbEntity
  8
SCALE
  6
CONTINUOUS
 62
     7
100
AcDbVertex
100
AcDb2dVertex
 10
934.6832276474
 20
-1247.6229927555
 30
0.0
  0
VERTEX
  5
3CC
330
CC
100
AcDbEntity
  8
SCALE
  6
CONTINUOUS
 62
     7
100
AcDbVertex
100
AcDb2dVertex
 10
936.7665610118
 20
-1260.1229929418
 30
0.0
  0
VERTEX
  5
3CD
330
CC
100
AcDbEntity
  8
SCALE
  6
CONTINUOUS
 62
     7
100
AcDbVertex
100
AcDb2dVertex
 10
938.8498943762
 20
-1247.6229927555
 30
0.0
  0
SEQEND
  5
3CE
330
CC
100
AcDbEntity
  8
SCALE
  6
CONTINUOUS
 62
     7
  0
LINE
  5
CD
330
CA
100
AcDbEntity
  8
SCALE
  6
CONTINUOUS
 62
     7
100
AcDbLine
 10
760.9086813247
 20
-1110.1229869813
 30
0.0
 11
944.2665608442
 21
-1110.1229869813
 31
0.0
  0
LINE
  5
CE
330
CA
100
AcDbEntity
  8
SCALE
  6
CONTINUOUS
 62
     7
100
AcDbLine
 10
749.4086813247
 20
-1260.1229869813
 30
0.0
 11
944.2665608442
 21
-1260.1229869813
 31
0.0
  0
LINE
  5
CF
330
CA
100
AcDbEntity
  8
SCALE
  6
CONTINUOUS
 62
     7
100
AcDbLine
 10
936.7665610118
 20
-1110.1229869813
 30
0.0
 11
936.7665610118
 21
-1260.1229929418
 31
0.0
  0
TEXT
  5
D0
330
CA
100
AcDbEntity
  8
SCALE
  6
CONTINUOUS
 62
     7
100
AcDbText
 10
933.0165610118
 20
-1199.8502626888
 30
0.0
 40
15.0
  1
150
 50
90.0
  7
SEACAD_ARIAL_TTF
 11
918.0165610118
 21
-1199.8502626888
 31
0.0
100
AcDbText
 73
     3
  0
ENDBLK
  5
D2
330
CA
100
AcDbEntity
  8
0
100
AcDbBlockEnd
  0
BLOCK
  5
D6
330
D3
100
AcDbEntity
  8
0
100
AcDbBlockBegin
  2
SE4
 70
     0
 10
0.0
 20
0.0
 30
0.0
  3
SE4
  1

  0
TEXT
  5
D4
330
D3
100
AcDbEntity
  8
SCALE
  6
CONTINUOUS
 62
     7
100
AcDbText
 10
1926.7876998201
 20
-1023.8520981405
 30
0.0
 40
15.0
  1
4-
  7
SEACAD_ARIAL_TTF
 11
1926.7876998201
 21
-1008.8520981405
 31
0.0
100
AcDbText
 73
     3
  0
TEXT
  5
D5
330
D3
100
AcDbEntity
  8
SCALE
  6
CONTINUOUS
 62
     7
100
AcDbText
 10
1946.4240634564
 20
-1023.8520981405
 30
0.0
 40
15.0
  1
\U+00D814×25長孔
  7
SEACAD_ARIAL_TTF
 11
1946.4240634564
 21
-1008.8520981405
 31
0.0
100
AcDbText
 73
     3
  0
ENDBLK
  5
D7
330
D3
100
AcDbEntity
  8
0
100
AcDbBlockEnd
  0
BLOCK
  5
E0
330
D8
100
AcDbEntity
  8
0
100
AcDbBlockBegin
  2
GDIMGGROUP6
 70
     0
 10
0.0
 20
0.0
 30
0.0
  3
GDIMGGROUP6
  1

  0
POLYLINE
  5
D9
330
D8
100
AcDbEntity
  8
SCALE
  6
CONTINUOUS
 62
     7
100
AcDb2dPolyline
 66
     1
 10
0.0
 20
0.0
 30
0.0
  0
VERTEX
  5
3CF
330
D9
100
AcDbEntity
  8
SCALE
  6
CONTINUOUS
 62
     7
100
AcDbVertex
100
AcDb2dVertex
 10
900.6610135799
 20
-989.1229873166
 30
0.0
  0
VERTEX
  5
3D0
330
D9
100
AcDbEntity
  8
SCALE
  6
CONTINUOUS
 62
     7
100
AcDbVertex
100
AcDb2dVertex
 10
903.1610135241
 20
-1004.1229869813
 30
0.0
  0
VERTEX
  5
3D1
330
D9
100
AcDbEntity
  8
SCALE
  6
CONTINUOUS
 62
     7
100
AcDbVertex
100
AcDb2dVertex
 10
905.6610134682
 20
-989.1229873166
 30
0.0
  0
SEQEND
  5
3D2
330
D9
100
AcDbEntity
  8
SCALE
  6
CONTINUOUS
 62
     7
  0
POLYLINE
  5
DA
330
D8
100
AcDbEntity
  8
SCALE
  6
CONTINUOUS
 62
     7
100
AcDb2dPolyline
 66
     1
 10
0.0
 20
0.0
 30
0.0
  0
VERTEX
  5
3D3
330
DA
100
AcDbEntity
  8
SCALE
  6
CONTINUOUS
 62
     7
100
AcDbVertex
100
AcDb2dVertex
 10
901.0776801597
 20
-1021.1229871676
 30
0.0
  0
VERTEX
  5
3D4
330
DA
100
AcDbEntity
  8
SCALE
  6
CONTINUOUS
 62
     7
100
AcDbVertex
100
AcDb2dVertex
 10
903.1610135241
 20
-1008.6229869813
 30
0.0
  0
VERTEX
  5
3D5
330
DA
100
AcDbEntity
  8
SCALE
  6
CONTINUOUS
 62
     7
100
AcDbVertex
100
AcDb2dVertex
 10
905.2443468884
 20
-1021.1229871676
 30
0.0
  0
SEQEND
  5
3D6
330
DA
100
AcDbEntity
  8
SCALE
  6
CONTINUOUS
 62
     7
  0
LINE
  5
DB
330
D8
100
AcDbEntity
  8
SCALE
  6
CONTINUOUS
 62
     7
100
AcDbLine
 10
879.4086813247
 20
-1004.1229869813
 30
0.0
 11
910.6610133564
 21
-1004.1229869813
 31
0.0
  0
LINE
  5
DC
330
D8
100
AcDbEntity
  8
SCALE
  6
CONTINUOUS
 62
     7
100
AcDbLine
 10
879.4086813247
 20
-1008.6229869813
 30
0.0
 11
910.6610133564
 21
-1008.6229869813
 31
0.0
  0
LINE
  5
DD
330
D8
100
AcDbEntity
  8
SCALE
  6
CONTINUOUS
 62
     7
100
AcDbLine
 10
903.1610135241
 20
-979.1229866088
 30
0.0
 11
903.1610135241
 21
-1004.1229869813
 31
0.0
  0
LINE
  5
DE
330
D8
100
AcDbEntity
  8
SCALE
  6
CONTINUOUS
 62
     7
100
AcDbLine
 10
903.1610135241
 20
-1008.6229869813
 30
0.0
 11
903.1610135241
 21
-1094.291819045
 31
0.0
  0
TEXT
  5
DF
330
D8
100
AcDbEntity
  8
SCALE
  6
CONTINUOUS
 62
     7
100
AcDbText
 10
899.4110135241
 20
-1089.0418193294
 30
0.0
 40
15.0
  1
4.5
 50
90.0
  7
SEACAD_ARIAL_TTF
 11
884.4110135241
 21
-1089.0418193294
 31
0.0
100
AcDbText
 73
     3
  0
ENDBLK
  5
E1
330
D8
100
AcDbEntity
  8
0
100
AcDbBlockEnd
  0
BLOCK
  5
E5
330
E2
100
AcDbEntity
  8
0
100
AcDbBlockBegin
  2
SE5
 70
     0
 10
0.0
 20
0.0
 30
0.0
  3
SE5
  1

  0
TEXT
  5
E3
330
E2
100
AcDbEntity
  8
SCALE
  6
CONTINUOUS
 62
     7
100
AcDbText
 10
1926.2538916075
 20
-919.2718967545
 30
0.0
 40
15.0
  1
4-
  7
SEACAD_ARIAL_TTF
 11
1926.2538916075
 21
-904.2718967545
 31
0.0
100
AcDbText
 73
     3
  0
TEXT
  5
E4
330
E2
100
AcDbEntity
  8
SCALE
  6
CONTINUOUS
 62
     7
100
AcDbText
 10
1945.8902552439
 20
-919.2718967545
 30
0.0
 40
15.0
  1
\U+00D813×20長孔
  7
SEACAD_ARIAL_TTF
 11
1945.8902552439
 21
-904.2718967545
 31
0.0
100
AcDbText
 73
     3
  0
ENDBLK
  5
E6
330
E2
100
AcDbEntity
  8
0
100
AcDbBlockEnd
  0
BLOCK
  5
EF
330
E8
100
AcDbEntity
  8
0
100
AcDbBlockBegin
  2
GDIMGGROUP7
 70
     0
 10
0.0
 20
0.0
 30
0.0
  3
GDIMGGROUP7
  1

  0
POLYLINE
  5
E9
330
E8
100
AcDbEntity
  8
OSM-SCALE
  6
CONTINUOUS
 62
     7
100
AcDb2dPolyline
 66
     1
 10
0.0
 20
0.0
 30
0.0
  0
VERTEX
  5
3D7
330
E9
100
AcDbEntity
  8
OSM-SCALE
  6
CONTINUOUS
 62
     7
100
AcDbVertex
100
AcDb2dVertex
 10
968.4401150113
 20
-1019.122986646
 30
0.0
  0
VERTEX
  5
3D8
330
E9
100
AcDbEntity
  8
OSM-SCALE
  6
CONTINUOUS
 62
     7
100
AcDbVertex
100
AcDb2dVertex
 10
970.9401149554
 20
-1004.1229869813
 30
0.0
  0
VERTEX
  5
3D9
330
E9
100
AcDbEntity
  8
OSM-SCALE
  6
CONTINUOUS
 62
     7
100
AcDbVertex
100
AcDb2dVertex
 10
973.4401148996
 20
-1019.122986646
 30
0.0
  0
SEQEND
  5
3DA
330
E9
100
AcDbEntity
  8
OSM-SCALE
  6
CONTINUOUS
 62
     7
  0
POLYLINE
  5
EA
330
E8
100
AcDbEntity
  8
OSM-SCALE
  6
CONTINUOUS
 62
     7
100
AcDb2dPolyline
 66
     1
 10
0.0
 20
0.0
 30
0.0
  0
VERTEX
  5
3DB
330
EA
100
AcDbEntity
  8
OSM-SCALE
  6
CONTINUOUS
 62
     7
100
AcDbVertex
100
AcDb2dVertex
 10
968.8567815911
 20
-1297.622981073
 30
0.0
  0
VERTEX
  5
3DC
330
EA
100
AcDbEntity
  8
OSM-SCALE
  6
CONTINUOUS
 62
     7
100
AcDbVertex
100
AcDb2dVertex
 10
970.9401149554
 20
-1310.1229812593
 30
0.0
  0
VERTEX
  5
3DD
330
EA
100
AcDbEntity
  8
OSM-SCALE
  6
CONTINUOUS
 62
     7
100
AcDbVertex
100
AcDb2dVertex
 10
973.0234483198
 20
-1297.622981073
 30
0.0
  0
SEQEND
  5
3DE
330
EA
100
AcDbEntity
  8
OSM-SCALE
  6
CONTINUOUS
 62
     7
  0
LINE
  5
EB
330
E8
100
AcDbEntity
  8
OSM-SCALE
  6
CONTINUOUS
 62
     7
100
AcDbLine
 10
879.4086813247
 20
-1004.1229869813
 30
0.0
 11
978.4401147878
 21
-1004.1229869813
 31
0.0
  0
LINE
  5
EC
330
E8
100
AcDbEntity
  8
OSM-SCALE
  6
CONTINUOUS
 62
     7
100
AcDbLine
 10
776.4086813247
 20
-1310.1229869813
 30
0.0
 11
978.4401147878
 21
-1310.1229869813
 31
0.0
  0
LINE
  5
ED
330
E8
100
AcDbEntity
  8
OSM-SCALE
  6
CONTINUOUS
 62
     7
100
AcDbLine
 10
970.9401149554
 20
-1004.1229869813
 30
0.0
 11
970.9401149554
 21
-1310.1229812593
 31
0.0
  0
TEXT
  5
EE
330
E8
100
AcDbEntity
  8
OSM-SCALE
  6
CONTINUOUS
 62
     7
100
AcDbText
 10
967.1901149554
 20
-1171.8502568475
 30
0.0
 40
15.0
  1
306
 50
90.0
  7
SEACAD_ARIAL_TTF
 11
952.1901149554
 21
-1171.8502568475
 31
0.0
100
AcDbText
 73
     3
  0
ENDBLK
  5
F0
330
E8
100
AcDbEntity
  8
0
100
AcDbBlockEnd
  0
BLOCK
  5
1F3
330
FF
100
AcDbEntity
  8
0
100
AcDbBlockBegin
  2
SE6
 70
     0
 10
0.0
 20
0.0
 30
0.0
  3
SE6
  1

  0
LINE
  5
100
330
FF
100
AcDbEntity
  8
109_001_SEP-0004
  6
CONTINUOUS
 62
     7
100
AcDbLine
 10
664.0137427962
 20
-1758.6697751186
 30
0.0
 11
930.6137427696
 21
-1758.6697751186
 31
0.0
  0
ARC
  5
101
330
FF
100
AcDbEntity
  8
109_001_SEP-0004
  6
CONTINUOUS
 62
     7
100
AcDbCircle
 10
664.0137427833
 20
-1756.9697751183
 30
0.0
 40
1.700000000383574
100
AcDbArc
 50
180.0000000129
 51
270.0000004351
  0
ARC
  5
102
330
FF
100
AcDbEntity
  8
109_001_SEP-0004
  6
CONTINUOUS
 62
     7
100
AcDbCircle
 10
930.6137427825
 20
-1756.9697751183
 30
0.0
 40
1.700000000383596
100
AcDbArc
 50
269.9999995649
 51
359.9999999871
  0
SPLINE
  5
103
330
FF
100
AcDbEntity
  8
109_001_SEP-0004
  6
CONTINUOUS
 62
     7
100
AcDbSpline
210
0.0
220
0.0
230
1.0
 70
     8
 71
     3
 72
    14
 73
    10
 74
     0
 42
0.0000000053841963
 43
0.0000000001
 40
0.0
 40
0.0
 40
0.0
 40
0.0
 40
0.25
 40
0.25
 40
0.5
 40
0.5
 40
0.75
 40
0.75
 40
1.0
 40
1.0
 40
1.0
 40
1.0
 10
930.006635994027
 20
-1756.96977511864
 30
0.0
 10
930.057236906913
 20
-1757.19234274764
 30
0.0
 10
930.1078204649131
 20
-1757.41474652164
 30
0.0
 10
930.209004928913
 20
-1757.82592738564
 30
0.0
 10
930.259597160913
 20
-1758.01450454264
 30
0.0
 10
930.3607816239131
 20
-1758.32920875064
 30
0.0
 10
930.4113738559131
 20
-1758.45521197864
 30
0.0
 10
930.512558318913
 20
-1758.62552866864
 30
0.0
 10
930.5631418779134
 20
-1758.66977511864
 30
0.0
 10
930.6137427696203
 20
-1758.66977511864
 30
0.0
  0
SPLINE
  5
104
330
FF
100
AcDbEntity
  8
109_001_SEP-0004
  6
CONTINUOUS
 62
     7
100
AcDbSpline
210
0.0
220
0.0
230
1.0
 70
     8
 71
     3
 72
    14
 73
    10
 74
     0
 42
0.0000000053841963
 43
0.0000000001
 40
0.0
 40
0.0
 40
0.0
 40
0.0
 40
0.25
 40
0.25
 40
0.5
 40
0.5
 40
0.75
 40
0.75
 40
1.0
 40
1.0
 40
1.0
 40
1.0
 10
664.0137427962061
 20
-1758.66977511864
 30
0.0
 10
664.064343687913
 20
-1758.66977511864
 30
0.0
 10
664.1149272469129
 20
-1758.62552866864
 30
0.0
 10
664.216111709913
 20
-1758.45521197864
 30
0.0
 10
664.266703941913
 20
-1758.32920875064
 30
0.0
 10
664.3678884049132
 20
-1758.01450454264
 30
0.0
 10
664.4184806369133
 20
-1757.82592738564
 30
0.0
 10
664.5196651009131
 20
-1757.41474652164
 30
0.0
 10
664.5702486589129
 20
-1757.19234274764
 30
0.0
 10
664.6208495717988
 20
-1756.96977511864
 30
0.0
  0
LINE
  5
105
330
FF
100
AcDbEntity
  8
109_001_SEP-0004
  6
CONTINUOUS
 62
     7
100
AcDbLine
 10
663.9137427829
 20
-1756.9697751186
 30
0.0
 11
664.0137427829
 21
-1757.0697751186
 31
0.0
  0
LINE
  5
106
330
FF
100
AcDbEntity
  8
109_001_SEP-0004
  6
CONTINUOUS
 62
     7
100
AcDbLine
 10
664.0137427829
 20
-1757.0697751186
 30
0.0
 11
664.0137427829
 21
-1758.6697751186
 31
0.0
  0
LINE
  5
107
330
FF
100
AcDbEntity
  8
109_001_SEP-0004
  6
CONTINUOUS
 62
     7
100
AcDbLine
 10
662.3137427829
 20
-1746.6697751186
 30
0.0
 11
662.3137427829
 21
-1756.9697751186
 31
0.0
  0
LINE
  5
108
330
FF
100
AcDbEntity
  8
109_001_SEP-0004
  6
CONTINUOUS
 62
     7
100
AcDbLine
 10
932.3137427829
 20
-1756.9697751186
 30
0.0
 11
932.3137427829
 21
-1746.6697751186
 31
0.0
  0
LINE
  5
109
330
FF
100
AcDbEntity
  8
109_001_SEP-0004
  6
CONTINUOUS
 62
     7
100
AcDbLine
 10
930.7137427829
 20
-1756.9697751186
 30
0.0
 11
932.3137427829
 21
-1756.9697751186
 31
0.0
  0
LINE
  5
10A
330
FF
100
AcDbEntity
  8
109_001_SEP-0004
  6
CONTINUOUS
 62
     7
100
AcDbLine
 10
930.6137427829
 20
-1757.0697751186
 30
0.0
 11
930.7137427829
 21
-1756.9697751186
 31
0.0
  0
LINE
  5
10B
330
FF
100
AcDbEntity
  8
109_001_SEP-0004
  6
CONTINUOUS
 62
     7
100
AcDbLine
 10
930.6137427829
 20
-1758.6697751186
 30
0.0
 11
930.6137427829
 21
-1757.0697751186
 31
0.0
  0
LINE
  5
10C
330
FF
100
AcDbEntity
  8
109_001_SEP-0004
  6
CONTINUOUS
 62
     7
100
AcDbLine
 10
930.0066360019
 20
-1756.9697751186
 30
0.0
 11
930.6137427829
 21
-1757.0697751186
 31
0.0
  0
LINE
  5
10D
330
FF
100
AcDbEntity
  8
109_001_SEP-0004
  6
CONTINUOUS
 62
     7
100
AcDbLine
 10
664.6208495639
 20
-1746.6697751186
 30
0.0
 11
664.6208495639
 21
-1756.9697751186
 31
0.0
  0
LINE
  5
10E
330
FF
100
AcDbEntity
  8
109_001_SEP-0004
  6
CONTINUOUS
 62
     7
100
AcDbLine
 10
930.0066360019
 20
-1746.6697751186
 30
0.0
 11
664.6208495639
 21
-1746.6697751186
 31
0.0
  0
LINE
  5
10F
330
FF
100
AcDbEntity
  8
109_001_SEP-0004
  6
CONTINUOUS
 62
     7
100
AcDbLine
 10
930.0066360019
 20
-1756.9697751186
 30
0.0
 11
930.0066360019
 21
-1746.6697751186
 31
0.0
  0
LINE
  5
110
330
FF
100
AcDbEntity
  8
109_001_SEP-0004
  6
CONTINUOUS
 62
     7
100
AcDbLine
 10
664.0137427829
 20
-1757.0697751186
 30
0.0
 11
664.6208495639
 21
-1756.9697751186
 31
0.0
  0
LINE
  5
111
330
FF
100
AcDbEntity
  8
109_001_SEP-0004
  6
CONTINUOUS
 62
     7
100
AcDbLine
 10
663.9137427829
 20
-1746.6697751186
 30
0.0
 11
663.9137427829
 21
-1756.9697751186
 31
0.0
  0
LINE
  5
112
330
FF
100
AcDbEntity
  8
109_001_SEP-0004
  6
CONTINUOUS
 62
     7
100
AcDbLine
 10
662.3137427829
 20
-1746.6697751186
 30
0.0
 11
663.9137427829
 21
-1746.6697751186
 31
0.0
  0
LINE
  5
113
330
FF
100
AcDbEntity
  8
109_001_SEP-0004
  6
CONTINUOUS
 62
     7
100
AcDbLine
 10
663.9137427829
 20
-1756.9697751186
 30
0.0
 11
662.3137427829
 21
-1756.9697751186
 31
0.0
  0
LINE
  5
114
330
FF
100
AcDbEntity
  8
109_001_SEP-0004
  6
CONTINUOUS
 62
     7
100
AcDbLine
 10
930.7137427829
 20
-1746.6697751186
 30
0.0
 11
932.3137427829
 21
-1746.6697751186
 31
0.0
  0
LINE
  5
115
330
FF
100
AcDbEntity
  8
109_001_SEP-0004
  6
CONTINUOUS
 62
     7
100
AcDbLine
 10
930.7137427829
 20
-1746.6697751186
 30
0.0
 11
930.7137427829
 21
-1756.9697751186
 31
0.0
  0
CIRCLE
  5
116
330
FF
100
AcDbEntity
  8
108_001_SEP-0004
  6
CONTINUOUS
 62
     7
100
AcDbCircle
 10
741.9137427829
 20
-1725.6697751186
 30
0.0
 40
3.0
  0
CIRCLE
  5
117
330
FF
100
AcDbEntity
  8
108_001_SEP-0004
  6
CONTINUOUS
 62
     7
100
AcDbCircle
 10
741.9137427829
 20
-1725.6697751186
 30
0.0
 40
2.5
  0
LINE
  5
118
330
FF
100
AcDbEntity
  8
107_001_SEP-0004
  6
CONTINUOUS
 62
     7
100
AcDbLine
 10
725.6217065406
 20
-1718.0730201172
 30
0.0
 11
730.9807649115
 21
-1717.0522470943
 31
0.0
  0
LINE
  5
119
330
FF
100
AcDbEntity
  8
107_001_SEP-0004
  6
CONTINUOUS
 62
     7
100
AcDbLine
 10
715.6637427829
 20
-1742.5697751186
 30
0.0
 11
715.6637427829
 21
-1735.1832537573
 31
0.0
  0
LINE
  5
11A
330
FF
100
AcDbEntity
  8
107_001_SEP-0004
  6
CONTINUOUS
 62
     7
100
AcDbLine
 10
768.1637427829
 20
-1735.1832537573
 30
0.0
 11
768.1637427829
 21
-1742.5697751186
 31
0.0
  0
LINE
  5
11B
330
FF
100
AcDbEntity
  8
107_001_SEP-0004
  6
CONTINUOUS
 62
     7
100
AcDbLine
 10
768.1637427829
 20
-1742.5697751186
 30
0.0
 11
768.1637427829
 21
-1744.9697751186
 31
0.0
  0
LINE
  5
11C
330
FF
100
AcDbEntity
  8
107_001_SEP-0004
  6
CONTINUOUS
 62
     7
100
AcDbLine
 10
715.6637427829
 20
-1744.9697751186
 30
0.0
 11
715.6637427829
 21
-1742.5697751186
 31
0.0
  0
LINE
  5
11D
330
FF
100
AcDbEntity
  8
107_001_SEP-0004
  6
CONTINUOUS
 62
     7
100
AcDbLine
 10
765.7637427754
 20
-1744.9697751186
 30
0.0
 11
718.0637427904
 21
-1744.9697751186
 31
0.0
  0
LINE
  5
11E
330
FF
100
AcDbEntity
  8
107_001_SEP-0004
  6
CONTINUOUS
 62
     7
100
AcDbLine
 10
718.0637427904
 20
-1744.9697751186
 30
0.0
 11
715.6637427829
 21
-1744.9697751186
 31
0.0
  0
LINE
  5
11F
330
FF
100
AcDbEntity
  8
107_001_SEP-0004
  6
CONTINUOUS
 62
     7
100
AcDbLine
 10
768.1637427829
 20
-1744.9697751186
 30
0.0
 11
765.7637427754
 21
-1744.9697751186
 31
0.0
  0
LINE
  5
120
330
FF
100
AcDbEntity
  8
106_001_SEP-0004
  6
CONTINUOUS
 62
     7
100
AcDbLine
 10
715.2137427829
 20
-1737.9697751186
 30
0.0
 11
715.6637427829
 21
-1737.9697751186
 31
0.0
  0
LINE
  5
121
330
FF
100
AcDbEntity
  8
106_001_SEP-0004
  6
CONTINUOUS
 62
     7
100
AcDbLine
 10
768.1637427829
 20
-1737.9697751186
 30
0.0
 11
768.6137427829
 21
-1737.9697751186
 31
0.0
  0
LINE
  5
122
330
FF
100
AcDbEntity
  8
105_001_SEP-0004
  6
CONTINUOUS
 62
     7
100
AcDbLine
 10
786.9137427829
 20
-1678.7086074577
 30
0.0
 11
696.9137427829
 21
-1678.7086074577
 31
0.0
  0
LINE
  5
123
330
FF
100
AcDbEntity
  8
105_001_SEP-0004
  6
CONTINUOUS
 62
     7
100
AcDbLine
 10
696.9137427829
 20
-1681.0697751186
 30
0.0
 11
696.9137427829
 21
-1678.6697751186
 31
0.0
  0
LINE
  5
124
330
FF
100
AcDbEntity
  8
105_001_SEP-0004
  6
CONTINUOUS
 62
     7
100
AcDbLine
 10
786.9137427829
 20
-1678.6697751186
 30
0.0
 11
786.9137427829
 21
-1681.0697751186
 31
0.0
  0
ARC
  5
125
330
FF
100
AcDbEntity
  8
105_001_SEP-0004
  6
CONTINUOUS
 62
     7
100
AcDbCircle
 10
741.9137427829
 20
-1725.6697751186
 30
0.0
 40
3.2
100
AcDbArc
 50
0.0
 51
79.1930771251
  0
ARC
  5
126
330
FF
100
AcDbEntity
  8
105_001_SEP-0004
  6
CONTINUOUS
 62
     7
100
AcDbCircle
 10
741.9137427829
 20
-1725.6697751186
 30
0.0
 40
3.200000000000002
100
AcDbArc
 50
100.8069228749
 51
109.8906599966
  0
ARC
  5
127
330
FF
100
AcDbEntity
  8
105_001_SEP-0004
  6
CONTINUOUS
 62
     7
100
AcDbCircle
 10
741.9137427829
 20
-1725.6697751186
 30
0.0
 40
3.2
100
AcDbArc
 50
237.6580430612
 51
259.1930771251
  0
ARC
  5
128
330
FF
100
AcDbEntity
  8
105_001_SEP-0004
  6
CONTINUOUS
 62
     7
100
AcDbCircle
 10
741.9137427829
 20
-1725.6697751186
 30
0.0
 40
3.2
100
AcDbArc
 50
280.8069228749
 51
0.0
  0
ARC
  5
129
330
FF
100
AcDbEntity
  8
105_001_SEP-0004
  6
CONTINUOUS
 62
     7
100
AcDbCircle
 10
761.6098978429
 20
-1729.1427386716
 30
0.0
 40
3.100000000000013
100
AcDbArc
 50
216.1960446832
 51
313.8039553078
  0
ARC
  5
12A
330
FF
100
AcDbEntity
  8
105_001_SEP-0004
  6
CONTINUOUS
 62
     7
100
AcDbCircle
 10
761.6098978429
 20
-1722.1968115656
 30
0.0
 40
3.100000000149624
100
AcDbArc
 50
46.1960446922
 51
143.8039553168
  0
CIRCLE
  5
12B
330
FF
100
AcDbEntity
  8
105_001_SEP-0004
  6
CONTINUOUS
 62
     7
100
AcDbCircle
 10
727.9881580299
 20
-1715.9189757006
 30
0.0
 40
3.200000000000045
  0
LINE
  5
12C
330
FF
100
AcDbEntity
  8
105_001_SEP-0004
  6
CONTINUOUS
 62
     7
100
AcDbLine
 10
711.8408967856
 20
-1730.5486261837
 30
0.0
 11
696.9137427829
 21
-1693.6697751186
 31
0.0
  0
ARC
  5
12D
330
FF
100
AcDbEntity
  8
105_001_SEP-0004
  6
CONTINUOUS
 62
     7
100
AcDbCircle
 10
721.1103649169
 20
-1726.7966986046
 30
0.0
 40
9.999999999945226
100
AcDbArc
 50
202.0362269513
 51
259.8753283579
  0
LINE
  5
12E
330
FF
100
AcDbEntity
  8
105_001_SEP-0004
  6
CONTINUOUS
 62
     7
100
AcDbLine
 10
740.1558363983
 20
-1740.3558632642
 30
0.0
 11
719.3524585344
 21
-1736.6409743601
 31
0.0
  0
ARC
  5
12F
330
FF
100
AcDbEntity
  8
105_001_SEP-0004
  6
CONTINUOUS
 62
     7
100
AcDbCircle
 10
741.9137427829
 20
-1730.5115875086
 30
0.0
 40
10.00000000092967
100
AcDbArc
 50
259.8753283461
 51
280.124671659
  0
LINE
  5
130
330
FF
100
AcDbEntity
  8
105_001_SEP-0004
  6
CONTINUOUS
 62
     7
100
AcDbLine
 10
764.4750270355
 20
-1736.6409743594
 30
0.0
 11
743.6716491685
 21
-1740.3558632645
 31
0.0
  0
ARC
  5
131
330
FF
100
AcDbEntity
  8
105_001_SEP-0004
  6
CONTINUOUS
 62
     7
100
AcDbCircle
 10
762.7171206489
 20
-1726.7966986046
 30
0.0
 40
9.999999999660837
100
AcDbArc
 50
280.1246716656
 51
337.9637730722
  0
LINE
  5
132
330
FF
100
AcDbEntity
  8
105_001_SEP-0004
  6
CONTINUOUS
 62
     7
100
AcDbLine
 10
786.9137427829
 20
-1693.6697751186
 30
0.0
 11
771.9865887816
 21
-1730.5486261799
 31
0.0
  0
LINE
  5
133
330
FF
100
AcDbEntity
  8
105_001_SEP-0004
  6
CONTINUOUS
 62
     7
100
AcDbLine
 10
786.9137427829
 20
-1681.0697751186
 30
0.0
 11
786.9137427829
 21
-1693.6697751186
 31
0.0
  0
LINE
  5
134
330
FF
100
AcDbEntity
  8
105_001_SEP-0004
  6
CONTINUOUS
 62
     7
100
AcDbLine
 10
696.9137427829
 20
-1693.6697751186
 30
0.0
 11
696.9137427829
 21
-1681.0697751186
 31
0.0
  0
LINE
  5
135
330
FF
100
AcDbEntity
  8
110_001_SEP-0004
  6
CONTINUOUS
 62
     7
100
AcDbLine
 10
699.3137427829
 20
-1674.0697751179
 30
0.0
 11
784.5137427829
 21
-1674.0697751179
 31
0.0
  0
LINE
  5
136
330
FF
100
AcDbEntity
  8
110_001_SEP-0004
  6
CONTINUOUS
 62
     7
100
AcDbLine
 10
699.3137427832
 20
-1676.3697751186
 30
0.0
 11
784.5137427827
 21
-1676.3697751186
 31
0.0
  0
ARC
  5
137
330
FF
100
AcDbEntity
  8
110_001_SEP-0004
  6
CONTINUOUS
 62
     7
100
AcDbCircle
 10
784.5137427829
 20
-1673.9697751186
 30
0.0
 40
2.399999999999999
100
AcDbArc
 50
269.9999999941
 51
0.0
  0
ARC
  5
138
330
FF
100
AcDbEntity
  8
110_001_SEP-0004
  6
CONTINUOUS
 62
     7
100
AcDbCircle
 10
699.3137427829
 20
-1673.9697751186
 30
0.0
 40
2.399999999999985
100
AcDbArc
 50
180.0
 51
270.0000000059
  0
LINE
  5
139
330
FF
100
AcDbEntity
  8
110_001_SEP-0004
  6
CONTINUOUS
 62
     7
100
AcDbLine
 10
699.2137427829
 20
-1671.3697751177
 30
0.0
 11
699.2137427829
 21
-1666.3697751186
 31
0.0
  0
LINE
  5
13A
330
FF
100
AcDbEntity
  8
110_001_SEP-0004
  6
CONTINUOUS
 62
     7
100
AcDbLine
 10
699.2137427829
 20
-1673.9697751186
 30
0.0
 11
699.2137427829
 21
-1671.3697751177
 31
0.0
  0
LINE
  5
13B
330
FF
100
AcDbEntity
  8
110_001_SEP-0004
  6
CONTINUOUS
 62
     7
100
AcDbLine
 10
784.6137427829
 20
-1671.3697751196
 30
0.0
 11
784.6137427829
 21
-1666.3697751186
 31
0.0
  0
LINE
  5
13C
330
FF
100
AcDbEntity
  8
110_001_SEP-0004
  6
CONTINUOUS
 62
     7
100
AcDbLine
 10
784.6137427829
 20
-1673.9697751186
 30
0.0
 11
784.6137427829
 21
-1671.3697751196
 31
0.0
  0
LINE
  5
13D
330
FF
100
AcDbEntity
  8
110_001_SEP-0004
  6
CONTINUOUS
 62
     7
100
AcDbLine
 10
786.9137427829
 20
-1671.3697751196
 30
0.0
 11
786.9137427829
 21
-1666.3697751186
 31
0.0
  0
LINE
  5
13E
330
FF
100
AcDbEntity
  8
110_001_SEP-0004
  6
CONTINUOUS
 62
     7
100
AcDbLine
 10
786.9137427829
 20
-1673.9697751186
 30
0.0
 11
786.9137427829
 21
-1671.3697751196
 31
0.0
  0
ARC
  5
13F
330
FF
100
AcDbEntity
  8
110_001_SEP-0004
  6
CONTINUOUS
 62
     7
100
AcDbCircle
 10
784.5137427829
 20
-1673.9697751186
 30
0.0
 40
0.1000000000000029
100
AcDbArc
 50
269.9999999942
 51
359.9999999997
  0
ARC
  5
140
330
FF
100
AcDbEntity
  8
110_001_SEP-0004
  6
CONTINUOUS
 62
     7
100
AcDbCircle
 10
699.3137427829
 20
-1673.9697751186
 30
0.0
 40
0.099999999999989
100
AcDbArc
 50
180.0
 51
270.0000000059
  0
LINE
  5
141
330
FF
100
AcDbEntity
  8
110_001_SEP-0004
  6
CONTINUOUS
 62
     7
100
AcDbLine
 10
696.9137427829
 20
-1671.3697751177
 30
0.0
 11
696.9137427829
 21
-1666.3697751186
 31
0.0
  0
LINE
  5
142
330
FF
100
AcDbEntity
  8
110_001_SEP-0004
  6
CONTINUOUS
 62
     7
100
AcDbLine
 10
696.9137427829
 20
-1673.9697751186
 30
0.0
 11
696.9137427829
 21
-1671.3697751177
 31
0.0
  0
LINE
  5
143
330
FF
100
AcDbEntity
  8
110_001_SEP-0004
  6
CONTINUOUS
 62
     7
100
AcDbLine
 10
696.9137427829
 20
-1666.3697751186
 30
0.0
 11
699.2137427829
 21
-1666.3697751186
 31
0.0
  0
LINE
  5
144
330
FF
100
AcDbEntity
  8
110_001_SEP-0004
  6
CONTINUOUS
 62
     7
100
AcDbLine
 10
784.6137427829
 20
-1666.3697751186
 30
0.0
 11
786.9137427829
 21
-1666.3697751186
 31
0.0
  0
LINE
  5
145
330
FF
100
AcDbEntity
  8
113_001_SEP-0004
  6
CONTINUOUS
 62
     7
100
AcDbLine
 10
701.9137427829
 20
-1760.9697751186
 30
0.0
 11
700.9137427829
 21
-1760.9697751186
 31
0.0
  0
LINE
  5
146
330
FF
100
AcDbEntity
  8
113_001_SEP-0004
  6
CONTINUOUS
 62
     7
100
AcDbLine
 10
781.9137427829
 20
-1760.9697751186
 30
0.0
 11
701.9137427829
 21
-1760.9697751186
 31
0.0
  0
LINE
  5
147
330
FF
100
AcDbEntity
  8
113_001_SEP-0004
  6
CONTINUOUS
 62
     7
100
AcDbLine
 10
782.9137427829
 20
-1760.9697751186
 30
0.0
 11
781.9137427829
 21
-1760.9697751186
 31
0.0
  0
LINE
  5
148
330
FF
100
AcDbEntity
  8
113_001_SEP-0004
  6
CONTINUOUS
 62
     7
100
AcDbLine
 10
700.9137427829
 20
-1758.6697751186
 30
0.0
 11
700.9137427829
 21
-1760.9697751186
 31
0.0
  0
LINE
  5
149
330
FF
100
AcDbEntity
  8
113_001_SEP-0004
  6
CONTINUOUS
 62
     7
100
AcDbLine
 10
701.9137427829
 20
-1758.6697751186
 30
0.0
 11
701.9137427829
 21
-1760.9697751186
 31
0.0
  0
LINE
  5
14A
330
FF
100
AcDbEntity
  8
113_001_SEP-0004
  6
CONTINUOUS
 62
     7
100
AcDbLine
 10
781.9137427829
 20
-1758.6697751186
 30
0.0
 11
781.9137427829
 21
-1760.9697751186
 31
0.0
  0
LINE
  5
14B
330
FF
100
AcDbEntity
  8
113_001_SEP-0004
  6
CONTINUOUS
 62
     7
100
AcDbLine
 10
782.9137427829
 20
-1758.6697751186
 30
0.0
 11
782.9137427829
 21
-1760.9697751186
 31
0.0
  0
LINE
  5
14C
330
FF
100
AcDbEntity
  8
113_001_SEP-0004
  6
CONTINUOUS
 62
     7
100
AcDbLine
 10
768.6137427829
 20
-1734.8731983049
 30
0.0
 11
768.6137427829
 21
-1746.6697751186
 31
0.0
  0
LINE
  5
14D
330
FF
100
AcDbEntity
  8
113_001_SEP-0004
  6
CONTINUOUS
 62
     7
100
AcDbLine
 10
715.2137427829
 20
-1734.8731983049
 30
0.0
 11
715.2137427829
 21
-1746.6697751186
 31
0.0
  0
LINE
  5
14E
330
FF
100
AcDbEntity
  8
113_001_SEP-0004
  6
CONTINUOUS
 62
     7
100
AcDbLine
 10
770.9137427829
 20
-1732.525170093
 30
0.0
 11
770.9137427829
 21
-1746.6697751186
 31
0.0
  0
LINE
  5
14F
330
FF
100
AcDbEntity
  8
113_001_SEP-0004
  6
CONTINUOUS
 62
     7
100
AcDbLine
 10
712.9137427829
 20
-1732.525170093
 30
0.0
 11
712.9137427829
 21
-1746.6697751186
 31
0.0
  0
LINE
  5
150
330
FF
100
AcDbEntity
  8
114_001_SEP-0004
  6
CONTINUOUS
 62
     7
100
AcDbLine
 10
741.3137427829
 20
-1737.6697751186
 30
0.0
 11
742.5137427829
 21
-1737.6697751186
 31
0.0
  0
LINE
  5
151
330
FF
100
AcDbEntity
  8
114_001_SEP-0004
  6
CONTINUOUS
 62
     7
100
AcDbLine
 10
735.5753794112
 20
-1735.3984299877
 30
0.0
 11
736.4946327427
 21
-1736.169775119
 31
0.0
  0
ARC
  5
152
330
FF
100
AcDbEntity
  8
114_001_SEP-0004
  6
CONTINUOUS
 62
     7
100
AcDbCircle
 10
745.1137427395
 20
-1722.3831678581
 30
0.0
 40
2.599999953293211
100
AcDbArc
 50
132.7321096581
 51
180.0000003102
  0
ARC
  5
153
330
FF
100
AcDbEntity
  8
114_001_SEP-0004
  6
CONTINUOUS
 62
     7
100
AcDbCircle
 10
745.1137427395
 20
-1722.3831678581
 30
0.0
 40
3.799999951730806
100
AcDbArc
 50
132.7321097714
 51
180.0000004534
  0
LINE
  5
154
330
FF
100
AcDbEntity
  8
114_001_SEP-0004
  6
CONTINUOUS
 62
     7
100
AcDbLine
 10
742.5137427829
 20
-1737.6697751186
 30
0.0
 11
742.5137427829
 21
-1728.60916281
 31
0.0
  0
LINE
  5
155
330
FF
100
AcDbEntity
  8
114_001_SEP-0004
  6
CONTINUOUS
 62
     7
100
AcDbLine
 10
742.5137427829
 20
-1722.7303874273
 30
0.0
 11
742.5137427829
 21
-1722.3831678721
 31
0.0
  0
LINE
  5
156
330
FF
100
AcDbEntity
  8
114_001_SEP-0004
  6
CONTINUOUS
 62
     7
100
AcDbLine
 10
741.3137427829
 20
-1722.3831678881
 30
0.0
 11
741.3137427829
 21
-1722.7303874273
 31
0.0
  0
LINE
  5
157
330
FF
100
AcDbEntity
  8
114_001_SEP-0004
  6
CONTINUOUS
 62
     7
100
AcDbLine
 10
741.3137427829
 20
-1728.60916281
 30
0.0
 11
741.3137427829
 21
-1737.6697751186
 31
0.0
  0
ARC
  5
158
330
FF
100
AcDbEntity
  8
114_001_SEP-0004
  6
CONTINUOUS
 62
     7
100
AcDbCircle
 10
741.3137427785
 20
-1718.2697751212
 30
0.0
 40
1.799999997370381
100
AcDbArc
 50
312.732110209
 51
225.9505300201
  0
ARC
  5
159
330
FF
100
AcDbEntity
  8
114_001_SEP-0004
  6
CONTINUOUS
 62
     7
100
AcDbCircle
 10
741.3137427785
 20
-1718.2697751212
 30
0.0
 40
3.000000003261182
100
AcDbArc
 50
312.7321101321
 51
90.0
  0
ARC
  5
15A
330
FF
100
AcDbEntity
  8
114_001_SEP-0004
  6
CONTINUOUS
 62
     7
100
AcDbCircle
 10
741.3137427785
 20
-1718.2697751212
 30
0.0
 40
3.000000003395995
100
AcDbArc
 50
90.0
 51
225.9505299384
  0
ARC
  5
15B
330
FF
100
AcDbEntity
  8
114_001_SEP-0004
  6
CONTINUOUS
 62
     7
100
AcDbCircle
 10
737.9764026053
 20
-1721.7197259366
 30
0.0
 40
1.800000011684653
100
AcDbArc
 50
322.8306094894
 51
45.9505296664
  0
ARC
  5
15C
330
FF
100
AcDbEntity
  8
114_001_SEP-0004
  6
CONTINUOUS
 62
     7
100
AcDbCircle
 10
737.9764026053
 20
-1721.7197259366
 30
0.0
 40
3.000000016742708
100
AcDbArc
 50
336.5446188214
 51
45.9505297262
  0
ARC
  5
15D
330
FF
100
AcDbEntity
  8
114_001_SEP-0004
  6
CONTINUOUS
 62
     7
100
AcDbCircle
 10
743.7137427888
 20
-1726.0697751182
 30
0.0
 40
4.200000006080026
100
AcDbArc
 50
206.4540565247
 51
213.5573097266
  0
ARC
  5
15E
330
FF
100
AcDbEntity
  8
114_001_SEP-0004
  6
CONTINUOUS
 62
     7
100
AcDbCircle
 10
743.7137427888
 20
-1726.0697751182
 30
0.0
 40
5.400000004768581
100
AcDbArc
 50
142.8306092445
 51
213.5573097266
  0
ARC
  5
15F
330
FF
100
AcDbEntity
  8
114_001_SEP-0004
  6
CONTINUOUS
 62
     7
100
AcDbCircle
 10
737.7137427797
 20
-1730.0497248673
 30
0.0
 40
1.800000002374312
100
AcDbArc
 50
320.000000024
 51
33.5573097241
  0
ARC
  5
160
330
FF
100
AcDbEntity
  8
114_001_SEP-0004
  6
CONTINUOUS
 62
     7
100
AcDbCircle
 10
737.7137427797
 20
-1730.0497248673
 30
0.0
 40
3.000000003350336
100
AcDbArc
 50
320.0000000445
 51
33.5573097251
  0
LINE
  5
161
330
FF
100
AcDbEntity
  8
114_001_SEP-0004
  6
CONTINUOUS
 62
     7
100
AcDbLine
 10
739.0926227799
 20
-1731.2067425659
 30
0.0
 11
735.5753794118
 21
-1735.3984299882
 31
0.0
  0
LINE
  5
162
330
FF
100
AcDbEntity
  8
114_001_SEP-0004
  6
CONTINUOUS
 62
     7
100
AcDbLine
 10
736.4946327433
 20
-1736.1697751195
 30
0.0
 11
740.0118761124
 21
-1731.9780876961
 31
0.0
  0
ARC
  5
163
330
FF
100
AcDbEntity
  8
114_001_SEP-0004
  6
CONTINUOUS
 62
     7
100
AcDbCircle
 10
745.8510829605
 20
-1729.6198243007
 30
0.0
 40
3.000000016742708
100
AcDbArc
 50
156.5446188214
 51
161.7206722204
  0
ARC
  5
164
330
FF
100
AcDbEntity
  8
114_001_SEP-0004
  6
CONTINUOUS
 62
     7
100
AcDbCircle
 10
740.113742777
 20
-1725.2697751191
 30
0.0
 40
4.200000006080037
100
AcDbArc
 50
26.4540565212
 51
33.5573097266
  0
LINE
  5
165
330
FF
100
AcDbEntity
  8
115_001_SEP-0004
  6
CONTINUOUS
 62
     7
100
AcDbLine
 10
746.4137427829
 20
-1761.7697751186
 30
0.0
 11
746.4137427829
 21
-1760.9697751186
 31
0.0
  0
LINE
  5
166
330
FF
100
AcDbEntity
  8
115_001_SEP-0004
  6
CONTINUOUS
 62
     7
100
AcDbLine
 10
737.4137427829
 20
-1760.9697751186
 30
0.0
 11
737.4137427829
 21
-1761.7697751186
 31
0.0
  0
LINE
  5
167
330
FF
100
AcDbEntity
  8
116_001_SEP-0004
  6
CONTINUOUS
 62
     7
100
AcDbLine
 10
742.7642064203
 20
-1764.1882040323
 30
0.0
 11
742.4287427829
 21
-1764.1882040325
 31
0.0
  0
ARC
  5
168
330
FF
100
AcDbEntity
  8
116_001_SEP-0004
  6
CONTINUOUS
 62
     7
100
AcDbCircle
 10
741.9137427829
 20
-1757.1852038486
 30
0.0
 40
6.75273015585639
100
AcDbArc
 50
265.6260645115
 51
274.3739354885
  0
ARC
  5
169
330
FF
100
AcDbEntity
  8
116_001_SEP-0004
  6
CONTINUOUS
 62
     7
100
AcDbCircle
 10
741.9137427829
 20
-1758.1697751186
 30
0.0
 40
6.07822136813064
100
AcDbArc
 50
278.0432065839
 51
288.9588229876
  0
LINE
  5
16A
330
FF
100
AcDbEntity
  8
116_001_SEP-0004
  6
CONTINUOUS
 62
     7
100
AcDbLine
 10
742.4287427829
 20
-1764.1882040333
 30
0.0
 11
742.4287427829
 21
-1763.9182670116
 31
0.0
  0
LINE
  5
16B
330
FF
100
AcDbEntity
  8
116_001_SEP-0004
  6
CONTINUOUS
 62
     7
100
AcDbLine
 10
746.6137427829
 20
-1762.0582194884
 30
0.0
 11
737.2137427829
 21
-1762.0582194884
 31
0.0
  0
LINE
  5
16C
330
FF
100
AcDbEntity
  8
116_001_SEP-0004
  6
CONTINUOUS
 62
     7
100
AcDbLine
 10
739.9389982536
 20
-1763.9182670116
 30
0.0
 11
739.9291962
 21
-1763.9379268903
 31
0.0
  0
ARC
  5
16D
330
FF
100
AcDbEntity
  8
116_001_SEP-0004
  6
CONTINUOUS
 62
     7
100
AcDbCircle
 10
741.9137427829
 20
-1758.1697751186
 30
0.0
 40
6.078221365655343
100
AcDbArc
 50
251.0411770124
 51
261.9567934019
  0
LINE
  5
16E
330
FF
100
AcDbEntity
  8
116_001_SEP-0004
  6
CONTINUOUS
 62
     7
100
AcDbLine
 10
741.3987427829
 20
-1763.9182670116
 30
0.0
 11
741.3987427829
 21
-1764.1882040331
 31
0.0
  0
LINE
  5
16F
330
FF
100
AcDbEntity
  8
116_001_SEP-0004
  6
CONTINUOUS
 62
     7
100
AcDbLine
 10
743.8884873122
 20
-1763.9182670116
 30
0.0
 11
743.8982893658
 21
-1763.9379268903
 31
0.0
  0
LINE
  5
170
330
FF
100
AcDbEntity
  8
116_001_SEP-0004
  6
CONTINUOUS
 62
     7
100
AcDbLine
 10
746.6137427829
 20
-1761.7697751186
 30
0.0
 11
737.2137427829
 21
-1761.7697751186
 31
0.0
  0
LINE
  5
171
330
FF
100
AcDbEntity
  8
116_001_SEP-0004
  6
CONTINUOUS
 62
     7
100
AcDbLine
 10
741.3987427829
 20
-1764.1882040307
 30
0.0
 11
741.0632791442
 21
-1764.1882040305
 31
0.0
  0
ARC
  5
172
330
FF
100
AcDbEntity
  8
116_001_SEP-0004
  6
CONTINUOUS
 62
     7
100
AcDbCircle
 10
741.9137427829
 20
-1758.1697751186
 30
0.0
 40
6.100000000000011
100
AcDbArc
 50
288.9859027147
 51
320.398073398
  0
ARC
  5
173
330
FF
100
AcDbEntity
  8
116_001_SEP-0004
  6
CONTINUOUS
 62
     7
100
AcDbCircle
 10
741.9137427829
 20
-1758.1697751186
 30
0.0
 40
6.099999984278504
100
AcDbArc
 50
219.601926602
 51
251.0140972853
  0
LINE
  5
174
330
FF
100
AcDbEntity
  8
116_001_SEP-0004
  6
CONTINUOUS
 62
     7
100
AcDbLine
 10
746.6137427829
 20
-1762.0582194884
 30
0.0
 11
746.6137427829
 21
-1761.7697751186
 31
0.0
  0
LINE
  5
175
330
FF
100
AcDbEntity
  8
116_001_SEP-0004
  6
CONTINUOUS
 62
     7
100
AcDbLine
 10
737.2137427829
 20
-1761.7697751186
 30
0.0
 11
737.2137427829
 21
-1762.0582194884
 31
0.0
  0
LINE
  5
176
330
FF
100
AcDbEntity
  8
117_001_SEP-0004
  6
CONTINUOUS
 62
     7
100
AcDbLine
 10
678.4137427829
 20
-1780.6697751186
 30
0.0
 11
669.4137427829
 21
-1780.6697751186
 31
0.0
  0
LINE
  5
177
330
FF
100
AcDbEntity
  8
117_001_SEP-0004
  6
CONTINUOUS
 62
     7
100
AcDbLine
 10
678.4137427829
 20
-1780.6697751186
 30
0.0
 11
678.4137427829
 21
-1758.6697751186
 31
0.0
  0
LINE
  5
178
330
FF
100
AcDbEntity
  8
117_001_SEP-0004
  6
CONTINUOUS
 62
     7
100
AcDbLine
 10
669.4137427829
 20
-1758.6697751186
 30
0.0
 11
669.4137427829
 21
-1780.6697751186
 31
0.0
  0
LINE
  5
179
330
FF
100
AcDbEntity
  8
117_001_SEP-0004
  6
CONTINUOUS
 62
     7
100
AcDbLine
 10
770.9137427829
 20
-1780.6697751186
 30
0.0
 11
779.9137427829
 21
-1780.6697751186
 31
0.0
  0
LINE
  5
17A
330
FF
100
AcDbEntity
  8
117_001_SEP-0004
  6
CONTINUOUS
 62
     7
100
AcDbLine
 10
779.9137427829
 20
-1780.6697751186
 30
0.0
 11
779.9137427829
 21
-1760.9697751186
 31
0.0
  0
LINE
  5
17B
330
FF
100
AcDbEntity
  8
117_001_SEP-0004
  6
CONTINUOUS
 62
     7
100
AcDbLine
 10
770.9137427829
 20
-1760.9697751186
 30
0.0
 11
770.9137427829
 21
-1780.6697751186
 31
0.0
  0
LINE
  5
17C
330
FF
100
AcDbEntity
  8
117_001_SEP-0004
  6
CONTINUOUS
 62
     7
100
AcDbLine
 10
914.4137427829
 20
-1780.6697751186
 30
0.0
 11
923.4137427829
 21
-1780.6697751186
 31
0.0
  0
LINE
  5
17D
330
FF
100
AcDbEntity
  8
117_001_SEP-0004
  6
CONTINUOUS
 62
     7
100
AcDbLine
 10
923.4137427829
 20
-1780.6697751186
 30
0.0
 11
923.4137427829
 21
-1758.6697751186
 31
0.0
  0
LINE
  5
17E
330
FF
100
AcDbEntity
  8
117_001_SEP-0004
  6
CONTINUOUS
 62
     7
100
AcDbLine
 10
914.4137427829
 20
-1758.6697751186
 30
0.0
 11
914.4137427829
 21
-1780.6697751186
 31
0.0
  0
LINE
  5
17F
330
FF
100
AcDbEntity
  8
118_001_SEP-0004
  6
CONTINUOUS
 62
     7
100
AcDbLine
 10
776.9137427829
 20
-1786.0697751186
 30
0.0
 11
773.9137427829
 21
-1786.0697751186
 31
0.0
  0
LINE
  5
180
330
FF
100
AcDbEntity
  8
118_001_SEP-0004
  6
CONTINUOUS
 62
     7
100
AcDbLine
 10
776.4137427829
 20
-1786.5697751186
 30
0.0
 11
774.4137427829
 21
-1786.5697751186
 31
0.0
  0
LINE
  5
181
330
FF
100
AcDbEntity
  8
118_001_SEP-0004
  6
CONTINUOUS
 62
     7
100
AcDbLine
 10
773.9137427829
 20
-1780.6697751186
 30
0.0
 11
773.9137427829
 21
-1786.0697751186
 31
0.0
  0
LINE
  5
182
330
FF
100
AcDbEntity
  8
118_001_SEP-0004
  6
CONTINUOUS
 62
     7
100
AcDbLine
 10
776.9137427829
 20
-1786.0697751186
 30
0.0
 11
776.9137427829
 21
-1780.6697751186
 31
0.0
  0
LINE
  5
183
330
FF
100
AcDbEntity
  8
118_001_SEP-0004
  6
CONTINUOUS
 62
     7
100
AcDbLine
 10
773.9137427829
 20
-1786.0697751186
 30
0.0
 11
774.4137427829
 21
-1786.5697751186
 31
0.0
  0
LINE
  5
184
330
FF
100
AcDbEntity
  8
118_001_SEP-0004
  6
CONTINUOUS
 62
     7
100
AcDbLine
 10
776.4137427829
 20
-1786.5697751186
 30
0.0
 11
776.9137427829
 21
-1786.0697751186
 31
0.0
  0
LINE
  5
185
330
FF
100
AcDbEntity
  8
118_001_SEP-0004
  6
CONTINUOUS
 62
     7
100
AcDbLine
 10
672.4137427829
 20
-1786.0697751186
 30
0.0
 11
675.4137427829
 21
-1786.0697751186
 31
0.0
  0
LINE
  5
186
330
FF
100
AcDbEntity
  8
118_001_SEP-0004
  6
CONTINUOUS
 62
     7
100
AcDbLine
 10
672.9137427829
 20
-1786.5697751186
 30
0.0
 11
674.9137427829
 21
-1786.5697751186
 31
0.0
  0
LINE
  5
187
330
FF
100
AcDbEntity
  8
118_001_SEP-0004
  6
CONTINUOUS
 62
     7
100
AcDbLine
 10
672.4137427829
 20
-1780.6697751186
 30
0.0
 11
672.4137427829
 21
-1786.0697751186
 31
0.0
  0
LINE
  5
188
330
FF
100
AcDbEntity
  8
118_001_SEP-0004
  6
CONTINUOUS
 62
     7
100
AcDbLine
 10
675.4137427829
 20
-1786.0697751186
 30
0.0
 11
675.4137427829
 21
-1780.6697751186
 31
0.0
  0
LINE
  5
189
330
FF
100
AcDbEntity
  8
118_001_SEP-0004
  6
CONTINUOUS
 62
     7
100
AcDbLine
 10
672.4137427829
 20
-1786.0697751186
 30
0.0
 11
672.9137427829
 21
-1786.5697751186
 31
0.0
  0
LINE
  5
18A
330
FF
100
AcDbEntity
  8
118_001_SEP-0004
  6
CONTINUOUS
 62
     7
100
AcDbLine
 10
674.9137427829
 20
-1786.5697751186
 30
0.0
 11
675.4137427829
 21
-1786.0697751186
 31
0.0
  0
LINE
  5
18B
330
FF
100
AcDbEntity
  8
119_001_SEP-0004
  6
CONTINUOUS
 62
     7
100
AcDbLine
 10
779.4137427829
 20
-1667.4697751186
 30
0.0
 11
774.4137427829
 21
-1667.4697751186
 31
0.0
  0
LINE
  5
18C
330
FF
100
AcDbEntity
  8
119_001_SEP-0004
  6
CONTINUOUS
 62
     7
100
AcDbLine
 10
778.9137427829
 20
-1666.9697751186
 30
0.0
 11
774.9137427829
 21
-1666.9697751186
 31
0.0
  0
LINE
  5
18D
330
FF
100
AcDbEntity
  8
119_001_SEP-0004
  6
CONTINUOUS
 62
     7
100
AcDbLine
 10
779.4137427829
 20
-1673.9297751186
 30
0.0
 11
779.4137427829
 21
-1667.4697751186
 31
0.0
  0
LINE
  5
18E
330
FF
100
AcDbEntity
  8
119_001_SEP-0004
  6
CONTINUOUS
 62
     7
100
AcDbLine
 10
774.4137427829
 20
-1667.4697751186
 30
0.0
 11
774.4137427829
 21
-1673.9297751186
 31
0.0
  0
LINE
  5
18F
330
FF
100
AcDbEntity
  8
119_001_SEP-0004
  6
CONTINUOUS
 62
     7
100
AcDbLine
 10
779.4137427829
 20
-1667.4697751186
 30
0.0
 11
778.9137427829
 21
-1666.9697751186
 31
0.0
  0
LINE
  5
190
330
FF
100
AcDbEntity
  8
119_001_SEP-0004
  6
CONTINUOUS
 62
     7
100
AcDbLine
 10
774.9137427829
 20
-1666.9697751186
 30
0.0
 11
774.4137427829
 21
-1667.4697751186
 31
0.0
  0
LINE
  5
191
330
FF
100
AcDbEntity
  8
119_001_SEP-0004
  6
CONTINUOUS
 62
     7
100
AcDbLine
 10
709.4137427829
 20
-1667.4697751186
 30
0.0
 11
704.4137427829
 21
-1667.4697751186
 31
0.0
  0
LINE
  5
192
330
FF
100
AcDbEntity
  8
119_001_SEP-0004
  6
CONTINUOUS
 62
     7
100
AcDbLine
 10
708.9137427829
 20
-1666.9697751186
 30
0.0
 11
704.9137427829
 21
-1666.9697751186
 31
0.0
  0
LINE
  5
193
330
FF
100
AcDbEntity
  8
119_001_SEP-0004
  6
CONTINUOUS
 62
     7
100
AcDbLine
 10
709.4137427829
 20
-1673.9297751186
 30
0.0
 11
709.4137427829
 21
-1667.4697751186
 31
0.0
  0
LINE
  5
194
330
FF
100
AcDbEntity
  8
119_001_SEP-0004
  6
CONTINUOUS
 62
     7
100
AcDbLine
 10
704.4137427829
 20
-1667.4697751186
 30
0.0
 11
704.4137427829
 21
-1673.9297751186
 31
0.0
  0
LINE
  5
195
330
FF
100
AcDbEntity
  8
119_001_SEP-0004
  6
CONTINUOUS
 62
     7
100
AcDbLine
 10
709.4137427829
 20
-1667.4697751186
 30
0.0
 11
708.9137427829
 21
-1666.9697751186
 31
0.0
  0
LINE
  5
196
330
FF
100
AcDbEntity
  8
119_001_SEP-0004
  6
CONTINUOUS
 62
     7
100
AcDbLine
 10
704.9137427829
 20
-1666.9697751186
 30
0.0
 11
704.4137427829
 21
-1667.4697751186
 31
0.0
  0
LINE
  5
197
330
FF
100
AcDbEntity
  8
119_001_SEP-0004
  6
CONTINUOUS
 62
     7
100
AcDbLine
 10
708.1737427829
 20
-1734.9697751186
 30
0.0
 11
708.1737427829
 21
-1738.6439153935
 31
0.0
  0
ARC
  5
198
330
FF
100
AcDbEntity
  8
119_001_SEP-0004
  6
CONTINUOUS
 62
     7
100
AcDbCircle
 10
708.5928465854
 20
-1747.4885576582
 30
0.0
 40
8.521930887235952
100
AcDbArc
 50
88.44251711
 51
91.5574988825
  0
SPLINE
  5
199
330
FF
100
AcDbEntity
  8
119_001_SEP-0004
  6
CONTINUOUS
 62
     7
100
AcDbSpline
210
0.0
220
0.0
230
1.0
 70
     8
 71
     3
 72
    16
 73
    12
 74
     0
 42
0.0000000023707757
 43
0.0000000001
 40
0.0
 40
0.0
 40
0.0
 40
0.0
 40
0.0824962440151644
 40
0.1656189142600027
 40
0.2507743045283694
 40
0.3740019518287712
 40
0.5006411421692475
 40
0.6281989682460817
 40
0.7490035183201492
 40
0.8766246625095312
 40
1.0
 40
1.0
 40
1.0
 40
1.0
 10
708.8244714468789
 20
-1738.969775117847
 30
0.0
 10
708.7502345704806
 20
-1738.874925384513
 30
0.0
 10
708.6011971107805
 20
-1738.684505690073
 30
0.0
 10
708.4494019879913
 20
-1738.360643845451
 30
0.0
 10
708.321986688852
 20
-1737.972203631276
 30
0.0
 10
708.235291146461
 20
-1737.512100647275
 30
0.0
 10
708.1973390607542
 20
-1736.990811987801
 30
0.0
 10
708.2067258349024
 20
-1736.470164354625
 30
0.0
 10
708.2701907023744
 20
-1735.952625344757
 30
0.0
 10
708.3866908761465
 20
-1735.443853568945
 30
0.0
 10
708.551967670403
 20
-1735.126009070456
 30
0.0
 10
708.633208173422
 20
-1734.969775118641
 30
0.0
  0
LINE
  5
19A
330
FF
100
AcDbEntity
  8
119_001_SEP-0004
  6
CONTINUOUS
 62
     7
100
AcDbLine
 10
711.9137427829
 20
-1738.9697751186
 30
0.0
 11
708.8244714475
 21
-1738.9697751186
 31
0.0
  0
LINE
  5
19B
330
FF
100
AcDbEntity
  8
119_001_SEP-0004
  6
CONTINUOUS
 62
     7
100
AcDbLine
 10
708.6332081742
 20
-1734.9697751186
 30
0.0
 11
711.9137427829
 21
-1734.9697751186
 31
0.0
  0
LINE
  5
19C
330
FF
100
AcDbEntity
  8
119_001_SEP-0004
  6
CONTINUOUS
 62
     7
100
AcDbLine
 10
708.1737427829
 20
-1734.9697751186
 30
0.0
 11
708.1737427829
 21
-1731.2956348436
 31
0.0
  0
LINE
  5
19D
330
FF
100
AcDbEntity
  8
119_001_SEP-0004
  6
CONTINUOUS
 62
     7
100
AcDbLine
 10
711.9137427829
 20
-1740.9697751186
 30
0.0
 11
711.9137427829
 21
-1730.7238020314
 31
0.0
  0
SPLINE
  5
19E
330
FF
100
AcDbEntity
  8
119_001_SEP-0004
  6
CONTINUOUS
 62
     7
100
AcDbSpline
210
0.0
220
0.0
230
1.0
 70
     8
 71
     3
 72
    16
 73
    12
 74
     0
 42
0.0000000023701592
 43
0.0000000001
 40
0.0
 40
0.0
 40
0.0
 40
0.0
 40
0.0818942348555935
 40
0.1650697813789951
 40
0.2506520037480092
 40
0.3718635271891597
 40
0.4996379932159164
 40
0.6264517835941379
 40
0.7497990056087309
 40
0.8764620495616467
 40
1.0
 40
1.0
 40
1.0
 40
1.0
 10
708.633208173422
 20
-1734.969775118641
 30
0.0
 10
708.5766067450255
 20
-1734.867315562007
 30
0.0
 10
708.4625183073666
 20
-1734.660793373067
 30
0.0
 10
708.3513427857652
 20
-1734.325975302313
 30
0.0
 10
708.2617513051686
 20
-1733.931472834746
 30
0.0
 10
708.2072179082536
 20
-1733.469977959606
 30
0.0
 10
708.1973394026179
 20
-1732.948719301892
 30
0.0
 10
708.2348327748851
 20
-1732.42617262132
 30
0.0
 10
708.3351061121871
 20
-1731.910686845315
 30
0.0
 10
708.5018363258663
 20
-1731.408720149071
 30
0.0
 10
708.717825665165
 20
-1731.114866687979
 30
0.0
 10
708.8244714471223
 20
-1730.969775119436
 30
0.0
  0
LINE
  5
19F
330
FF
100
AcDbEntity
  8
119_001_SEP-0004
  6
CONTINUOUS
 62
     7
100
AcDbLine
 10
708.8244714482
 20
-1730.9697751186
 30
0.0
 11
711.9137427829
 21
-1730.9697751186
 31
0.0
  0
ARC
  5
1A0
330
FF
100
AcDbEntity
  8
119_001_SEP-0004
  6
CONTINUOUS
 62
     7
100
AcDbCircle
 10
708.5928465854
 20
-1722.4509927599
 30
0.0
 40
8.521930706491272
100
AcDbArc
 50
268.4425010845
 51
271.557482923
  0
LINE
  5
1A1
330
FF
100
AcDbEntity
  8
119_001_SEP-0004
  6
CONTINUOUS
 62
     7
100
AcDbLine
 10
708.1737427829
 20
-1738.6439153936
 30
0.0
 11
708.3775764179
 21
-1738.9594076322
 31
0.0
  0
LINE
  5
1A2
330
FF
100
AcDbEntity
  8
119_001_SEP-0004
  6
CONTINUOUS
 62
     7
100
AcDbLine
 10
708.3683527284
 20
-1730.9739536524
 30
0.0
 11
708.1737427829
 21
-1731.2956348436
 31
0.0
  0
LINE
  5
1A3
330
FF
100
AcDbEntity
  8
119_001_SEP-0004
  6
CONTINUOUS
 62
     7
100
AcDbLine
 10
711.9137427829
 20
-1740.9697751186
 30
0.0
 11
712.9137427829
 21
-1740.9697751186
 31
0.0
  0
LINE
  5
1A4
330
FF
100
AcDbEntity
  8
119_001_SEP-0004
  6
CONTINUOUS
 62
     7
100
AcDbLine
 10
715.2137427829
 20
-1737.4697751186
 30
0.0
 11
715.6637427829
 21
-1737.4697751186
 31
0.0
  0
SPLINE
  5
1A5
330
FF
100
AcDbEntity
  8
119_001_SEP-0004
  6
CONTINUOUS
 62
     7
100
AcDbSpline
210
0.0
220
0.0
230
1.0
 70
    12
 71
     3
 72
     8
 73
     4
 74
     0
 42
0.0000000004536209
 43
0.0000000001
 40
0.0
 40
0.0
 40
0.0
 40
0.0
 40
1.0
 40
1.0
 40
1.0
 40
1.0
 10
764.3110894603503
 20
-1722.885527345297
 30
0.0
 41
1.0
 10
769.8795850080885
 20
-1727.680220700436
 30
0.0
 41
0.3333333333554609
 10
765.0848916525827
 20
-1733.248716247858
 30
0.0
 41
0.3333333333554609
 10
759.5163961054768
 20
-1728.454022891985
 30
0.0
 41
1.0
  0
ARC
  5
1A6
330
FF
100
AcDbEntity
  8
119_001_SEP-0004
  6
CONTINUOUS
 62
     7
100
AcDbCircle
 10
483.8593673671
 20
-3202.325232037
 30
0.0
 40
1498.873400367614
100
AcDbArc
 50
79.2420368951
 51
79.4187019274
  0
ARC
  5
1A7
330
FF
100
AcDbEntity
  8
119_001_SEP-0004
  6
CONTINUOUS
 62
     7
100
AcDbCircle
 10
1832.0208861129
 20
-2647.0740513917
 30
0.0
 40
1408.132837202259
100
AcDbArc
 50
139.1888784727
 51
139.3516352732
  0
ARC
  5
1A8
330
FF
100
AcDbEntity
  8
119_001_SEP-0004
  6
CONTINUOUS
 62
     7
100
AcDbCircle
 10
2216.6945224234
 20
-1218.9308735253
 30
0.0
 40
1536.777216549348
100
AcDbArc
 50
199.1239904961
 51
199.2962981733
  0
CIRCLE
  5
1A9
330
FF
100
AcDbEntity
  8
119_001_SEP-0004
  6
CONTINUOUS
 62
     7
100
AcDbCircle
 10
761.9137427829
 20
-1725.6697751186
 30
0.0
 40
2.799999999999955
  0
SPLINE
  5
1AA
330
FF
100
AcDbEntity
  8
119_001_SEP-0004
  6
CONTINUOUS
 62
     7
100
AcDbSpline
210
0.0
220
0.0
230
1.0
 70
     8
 71
     2
 72
    28
 73
    25
 74
     0
 42
0.000000000860833
 43
0.0000000001
 40
0.0
 40
0.0
 40
0.0
 40
0.125
 40
0.125
 40
0.25
 40
0.25
 40
0.3125
 40
0.3125
 40
0.375
 40
0.375
 40
0.4375
 40
0.4375
 40
0.5
 40
0.5
 40
0.5625
 40
0.5625
 40
0.625
 40
0.625
 40
0.6875
 40
0.6875
 40
0.75
 40
0.75
 40
0.875
 40
0.875
 40
1.0
 40
1.0
 40
1.0
 10
764.3110894603503
 20
-1722.885527345297
 30
0.0
 10
763.9130729707146
 20
-1722.543008140272
 30
0.0
 10
763.4356062170091
 20
-1722.325640185906
 30
0.0
 10
762.8280899570253
 20
-1722.049066862942
 30
0.0
 10
762.1610714609043
 20
-1722.003968892799
 30
0.0
 10
761.7757226408671
 20
-1721.977914968235
 30
0.0
 10
761.3923593990196
 20
-1722.032816756579
 30
0.0
 10
760.9772149772788
 20
-1722.092269955755
 30
0.0
 10
760.5852167132075
 20
-1722.244234979847
 30
0.0
 10
760.1704709981829
 20
-1722.405018453533
 30
0.0
 10
759.8052802766363
 20
-1722.660839655724
 30
0.0
 10
759.4295715642928
 20
-1722.924028857406
 30
0.0
 10
759.1294950090345
 20
-1723.272428440744
 30
0.0
 10
758.8301307112866
 20
-1723.620001067707
 30
0.0
 10
758.6250480659791
 20
-1724.031546252095
 30
0.0
 10
758.4266522452457
 20
-1724.429672795192
 30
0.0
 10
758.3288904281272
 20
-1724.86470347291
 30
0.0
 10
758.2369389519833
 20
-1725.273878692472
 30
0.0
 10
758.2396843157569
 20
-1725.694293281132
 30
0.0
 10
758.2422063866251
 20
-1726.080513641664
 30
0.0
 10
758.325316776268
 20
-1726.458765331006
 30
0.0
 10
758.4685664770032
 20
-1727.110722824328
 30
0.0
 10
758.8327005954459
 20
-1727.671395911754
 30
0.0
 10
759.1181703468021
 20
-1728.110946063066
 30
0.0
 10
759.5163961054768
 20
-1728.454022891985
 30
0.0
  0
CIRCLE
  5
1AB
330
FF
100
AcDbEntity
  8
119_001_SEP-0004
  6
CONTINUOUS
 62
     7
100
AcDbCircle
 10
761.9137427829
 20
-1725.6697751186
 30
0.0
 40
6.0
  0
ARC
  5
1AC
330
FF
100
AcDbEntity
  8
119_001_SEP-0004
  6
CONTINUOUS
 62
     7
100
AcDbCircle
 10
1039.968118406
 20
-249.0143171014
 30
0.0
 40
1498.873401485758
100
AcDbArc
 50
259.2420368952
 51
259.4187019273
  0
ARC
  5
1AD
330
FF
100
AcDbEntity
  8
119_001_SEP-0004
  6
CONTINUOUS
 62
     7
100
AcDbCircle
 10
-692.8670345631
 20
-2232.4086759126
 30
0.0
 40
1536.777214119577
100
AcDbArc
 50
19.1239904959
 51
19.2962981734
  0
ARC
  5
1AE
330
FF
100
AcDbEntity
  8
119_001_SEP-0004
  6
CONTINUOUS
 62
     7
100
AcDbCircle
 10
-308.193400115
 20
-804.2654992174
 30
0.0
 40
1408.132836632191
100
AcDbArc
 50
319.1888784727
 51
319.3516352732
  0
LINE
  5
1AF
330
FF
100
AcDbEntity
  8
119_001_SEP-0004
  6
CONTINUOUS
 62
     7
100
AcDbLine
 10
761.8610908607
 20
-1724.9646313212
 30
0.0
 11
762.6767057047
 21
-1724.0173866716
 31
0.0
  0
LINE
  5
1B0
330
FF
100
AcDbEntity
  8
119_001_SEP-0004
  6
CONTINUOUS
 62
     7
100
AcDbLine
 10
760.9138462111
 20
-1724.1490164771
 30
0.0
 11
761.8610908607
 21
-1724.9646313212
 31
0.0
  0
LINE
  5
1B1
330
FF
100
AcDbEntity
  8
119_001_SEP-0004
  6
CONTINUOUS
 62
     7
100
AcDbLine
 10
760.2613543359
 20
-1724.9068121968
 30
0.0
 11
760.9138462111
 21
-1724.1490164771
 31
0.0
  0
LINE
  5
1B2
330
FF
100
AcDbEntity
  8
119_001_SEP-0004
  6
CONTINUOUS
 62
     7
100
AcDbLine
 10
761.2085989855
 20
-1725.7224270409
 30
0.0
 11
760.2613543359
 21
-1724.9068121968
 31
0.0
  0
LINE
  5
1B3
330
FF
100
AcDbEntity
  8
119_001_SEP-0004
  6
CONTINUOUS
 62
     7
100
AcDbLine
 10
760.3929841414
 20
-1726.6696716905
 30
0.0
 11
761.2085989855
 21
-1725.7224270409
 31
0.0
  0
LINE
  5
1B4
330
FF
100
AcDbEntity
  8
119_001_SEP-0004
  6
CONTINUOUS
 62
     7
100
AcDbLine
 10
761.1507798611
 20
-1727.3221635657
 30
0.0
 11
760.3929841414
 21
-1726.6696716905
 31
0.0
  0
LINE
  5
1B5
330
FF
100
AcDbEntity
  8
119_001_SEP-0004
  6
CONTINUOUS
 62
     7
100
AcDbLine
 10
761.9663947051
 20
-1726.3749189161
 30
0.0
 11
761.1507798611
 21
-1727.3221635657
 31
0.0
  0
LINE
  5
1B6
330
FF
100
AcDbEntity
  8
119_001_SEP-0004
  6
CONTINUOUS
 62
     7
100
AcDbLine
 10
762.9136393547
 20
-1727.1905337601
 30
0.0
 11
761.9663947051
 21
-1726.3749189161
 31
0.0
  0
LINE
  5
1B7
330
FF
100
AcDbEntity
  8
119_001_SEP-0004
  6
CONTINUOUS
 62
     7
100
AcDbLine
 10
763.56613123
 20
-1726.4327380405
 30
0.0
 11
762.9136393547
 21
-1727.1905337601
 31
0.0
  0
LINE
  5
1B8
330
FF
100
AcDbEntity
  8
119_001_SEP-0004
  6
CONTINUOUS
 62
     7
100
AcDbLine
 10
762.6188865804
 20
-1725.6171231964
 30
0.0
 11
763.56613123
 21
-1726.4327380405
 31
0.0
  0
LINE
  5
1B9
330
FF
100
AcDbEntity
  8
119_001_SEP-0004
  6
CONTINUOUS
 62
     7
100
AcDbLine
 10
763.4345014244
 20
-1724.6698785468
 30
0.0
 11
762.6188865804
 21
-1725.6171231964
 31
0.0
  0
LINE
  5
1BA
330
FF
100
AcDbEntity
  8
119_001_SEP-0004
  6
CONTINUOUS
 62
     7
100
AcDbLine
 10
762.6767057047
 20
-1724.0173866716
 30
0.0
 11
763.4345014244
 21
-1724.6698785468
 31
0.0
  0
LINE
  5
1BB
330
FF
100
AcDbEntity
  8
119_001_SEP-0004
  6
CONTINUOUS
 62
     7
100
AcDbLine
 10
775.6537427829
 20
-1735.7260175617
 30
0.0
 11
775.6537427829
 21
-1738.6439153935
 31
0.0
  0
SPLINE
  5
1BC
330
FF
100
AcDbEntity
  8
119_001_SEP-0004
  6
CONTINUOUS
 62
     7
100
AcDbSpline
210
0.0
220
0.0
230
1.0
 70
     8
 71
     3
 72
    16
 73
    12
 74
     0
 42
0.0000000027120896
 43
0.0000000001
 40
0.0
 40
0.0
 40
0.0
 40
0.0
 40
0.0818942348566995
 40
0.1650697813800578
 40
0.250652003748027
 40
0.371863527188124
 40
0.4996379932159229
 40
0.6264517835929033
 40
0.7497990056087136
 40
0.8764620495606634
 40
1.0
 40
1.0
 40
1.0
 40
1.0
 10
775.1942773924048
 20
-1735.857924698718
 30
0.0
 10
775.2508788208022
 20
-1735.945970065847
 30
0.0
 10
775.364967258462
 20
-1736.123438352344
 30
0.0
 10
775.4761427800639
 20
-1736.411168464038
 30
0.0
 10
775.5657342606578
 20
-1736.750357566691
 30
0.0
 10
775.6202676575735
 20
-1737.146834585503
 30
0.0
 10
775.6301461632092
 20
-1737.595063357441
 30
0.0
 10
775.5926527909412
 20
-1738.043736324332
 30
0.0
 10
775.4923794536405
 20
-1738.487205558265
 30
0.0
 10
775.3256492399624
 20
-1738.918449861091
 30
0.0
 10
775.1096599006629
 20
-1739.171057890746
 30
0.0
 10
775.0030141187048
 20
-1739.295784327857
 30
0.0
  0
SPLINE
  5
1BD
330
FF
100
AcDbEntity
  8
119_001_SEP-0004
  6
CONTINUOUS
 62
     7
100
AcDbSpline
210
0.0
220
0.0
230
1.0
 70
     8
 71
     3
 72
    15
 73
    11
 74
     0
 42
0.0000000212224643
 43
0.0000000001
 40
0.0
 40
0.0
 40
0.0
 40
0.0
 40
0.1181358122130696
 40
0.2365316383464056
 40
0.3556035265882151
 40
0.475717729642084
 40
0.597208042903323
 40
0.7203906256796013
 40
0.8455759827638312
 40
1.0
 40
1.0
 40
1.0
 40
1.0
 10
775.0030141187048
 20
-1739.295784327857
 30
0.0
 10
775.0278146149943
 20
-1739.287194349099
 30
0.0
 10
775.0774701932988
 20
-1739.269995485494
 30
0.0
 10
775.1419575652131
 20
-1739.242881482659
 30
0.0
 10
775.1998205584641
 20
-1739.215006465836
 30
0.0
 10
775.25084174246
 20
-1739.186347285839
 30
0.0
 10
775.2957140814682
 20
-1739.156974647498
 30
0.0
 10
775.3348361704749
 20
-1739.126855772172
 30
0.0
 10
775.3710031673729
 20
-1739.093731244762
 30
0.0
 10
775.3916576138081
 20
-1739.070346674431
 30
0.0
 10
775.4017755718085
 20
-1739.057372294306
 30
0.0
  0
LINE
  5
1BE
330
FF
100
AcDbEntity
  8
119_001_SEP-0004
  6
CONTINUOUS
 62
     7
100
AcDbLine
 10
771.9137427829
 20
-1739.2957843284
 30
0.0
 11
775.003014119
 21
-1739.2957843284
 31
0.0
  0
LINE
  5
1BF
330
FF
100
AcDbEntity
  8
119_001_SEP-0004
  6
CONTINUOUS
 62
     7
100
AcDbLine
 10
771.9137427829
 20
-1735.8579246987
 30
0.0
 11
775.1942773921
 21
-1735.8579246987
 31
0.0
  0
LINE
  5
1C0
330
FF
100
AcDbEntity
  8
119_001_SEP-0004
  6
CONTINUOUS
 62
     7
100
AcDbLine
 10
775.6537427829
 20
-1731.2955882178
 30
0.0
 11
775.6537427829
 21
-1735.7260175617
 31
0.0
  0
LINE
  5
1C1
330
FF
100
AcDbEntity
  8
119_001_SEP-0004
  6
CONTINUOUS
 62
     7
100
AcDbLine
 10
771.9137427829
 20
-1730.7238020314
 30
0.0
 11
771.9137427829
 21
-1740.9697751186
 31
0.0
  0
LINE
  5
1C2
330
FF
100
AcDbEntity
  8
119_001_SEP-0004
  6
CONTINUOUS
 62
     7
100
AcDbLine
 10
775.0030141176
 20
-1730.6437659089
 30
0.0
 11
771.9475092191
 21
-1730.6437659089
 31
0.0
  0
SPLINE
  5
1C3
330
FF
100
AcDbEntity
  8
119_001_SEP-0004
  6
CONTINUOUS
 62
     7
100
AcDbSpline
210
0.0
220
0.0
230
1.0
 70
     8
 71
     3
 72
    16
 73
    12
 74
     0
 42
0.00000000217785
 43
0.0000000001
 40
0.0
 40
0.0
 40
0.0
 40
0.0
 40
0.0824962440148566
 40
0.1656189142597022
 40
0.2507743045283506
 40
0.3740019518286595
 40
0.500641142169229
 40
0.6281989682458529
 40
0.7490035183201255
 40
0.8766246625081074
 40
1.0
 40
1.0
 40
1.0
 40
1.0
 10
775.003014118948
 20
-1731.467079541491
 30
0.0
 10
775.0772509953462
 20
-1731.571189914599
 30
0.0
 10
775.226288455046
 20
-1731.780201207822
 30
0.0
 10
775.3780835778349
 20
-1732.135670034907
 30
0.0
 10
775.5054988769748
 20
-1732.562200879679
 30
0.0
 10
775.5921944193664
 20
-1733.066857257125
 30
0.0
 10
775.6301465050726
 20
-1733.639521332767
 30
0.0
 10
775.6207597309249
 20
-1734.210821820722
 30
0.0
 10
775.5572948634525
 20
-1734.779092403492
 30
0.0
 10
775.4407946896828
 20
-1735.337417331382
 30
0.0
 10
775.2755178954255
 20
-1735.686389960312
 30
0.0
 10
775.1942773924048
 20
-1735.857924698718
 30
0.0
  0
LINE
  5
1C4
330
FF
100
AcDbEntity
  8
119_001_SEP-0004
  6
CONTINUOUS
 62
     7
100
AcDbLine
 10
771.9137427829
 20
-1731.4670795405
 30
0.0
 11
775.0030141183
 21
-1731.4670795405
 31
0.0
  0
SPLINE
  5
1C5
330
FF
100
AcDbEntity
  8
119_001_SEP-0004
  6
CONTINUOUS
 62
     7
100
AcDbSpline
210
0.0
220
0.0
230
1.0
 70
     8
 71
     3
 72
    23
 73
    19
 74
     0
 42
0.0000000075374413
 43
0.0000000001
 40
0.0
 40
0.0
 40
0.0
 40
0.0
 40
0.0350327479775924
 40
0.07014260214315
 40
0.1054529400826143
 40
0.1410723727109985
 40
0.177099885845909
 40
0.2136292353869201
 40
0.2507525004077002
 40
0.3738910517113256
 40
0.499619434016943
 40
0.5000285737589881
 40
0.6261486522083455
 40
0.7495881845487021
 40
0.8140881251678266
 40
0.8769740080381724
 40
0.9387521043183049
 40
1.0
 40
1.0
 40
1.0
 40
1.0
 10
775.0030141187048
 20
-1730.643765909425
 30
0.0
 10
775.0278146149943
 20
-1730.652355888183
 30
0.0
 10
775.0774701932986
 20
-1730.669554751788
 30
0.0
 10
775.1419575652131
 20
-1730.696668754622
 30
0.0
 10
775.1998205584639
 20
-1730.724543771446
 30
0.0
 10
775.2508417424598
 20
-1730.753202951442
 30
0.0
 10
775.2957140814682
 20
-1730.782575589784
 30
0.0
 10
775.3348361704748
 20
-1730.81269446511
 30
0.0
 10
775.394422224254
 20
-1730.867267972477
 30
0.0
 10
775.4513385252648
 20
-1730.949179426325
 30
0.0
 10
775.4662452180884
 20
-1731.019356082953
 30
0.0
 10
775.4662872381822
 20
-1731.091251038039
 30
0.0
 10
775.451424435914
 20
-1731.16351078826
 30
0.0
 10
775.3888414406406
 20
-1731.251158960952
 30
0.0
 10
775.3083898983426
 20
-1731.321106728732
 30
0.0
 10
775.2283169928446
 20
-1731.372582907851
 30
0.0
 10
775.1303581505567
 20
-1731.421568077102
 30
0.0
 10
775.0453399959622
 20
-1731.451952703119
 30
0.0
 10
775.003014118948
 20
-1731.467079541491
 30
0.0
  0
SPLINE
  5
1C6
330
FF
100
AcDbEntity
  8
119_001_SEP-0004
  6
CONTINUOUS
 62
     7
100
AcDbSpline
210
0.0
220
0.0
230
1.0
 70
     8
 71
     3
 72
     8
 73
     4
 74
     0
 42
0.0000000202958709
 43
0.0000000001
 40
0.0
 40
0.0
 40
0.0
 40
0.0
 40
1.0
 40
1.0
 40
1.0
 40
1.0
 10
775.3971605764683
 20
-1739.059041567205
 30
0.0
 10
775.4121218868651
 20
-1739.055510412968
 30
0.0
 10
775.4976492890135
 20
-1738.917135021781
 30
0.0
 10
775.6537427829135
 20
-1738.643915393644
 30
0.0
  0
LINE
  5
1C7
330
FF
100
AcDbEntity
  8
119_001_SEP-0004
  6
CONTINUOUS
 62
     7
100
AcDbLine
 10
775.6537427829
 20
-1731.2956348436
 30
0.0
 11
775.3892554322
 21
-1730.8862632188
 31
0.0
  0
LINE
  5
1C8
330
FF
100
AcDbEntity
  8
119_001_SEP-0004
  6
CONTINUOUS
 62
     7
100
AcDbLine
 10
770.9137427829
 20
-1740.9697751186
 30
0.0
 11
771.9137427829
 21
-1740.9697751186
 31
0.0
  0
LINE
  5
1C9
330
FF
100
AcDbEntity
  8
119_001_SEP-0004
  6
CONTINUOUS
 62
     7
100
AcDbLine
 10
768.1637427829
 20
-1737.4697751186
 30
0.0
 11
768.6137427829
 21
-1737.4697751186
 31
0.0
  0
LINE
  5
1CA
330
FF
100
AcDbEntity
  8
119_001_SEP-0004
  6
CONTINUOUS
 62
     7
100
AcDbLine
 10
703.2396025082
 20
-1673.9297751186
 30
0.0
 11
704.9041932955
 21
-1673.9297751186
 31
0.0
  0
ARC
  5
1CB
330
FF
100
AcDbEntity
  8
119_001_SEP-0004
  6
CONTINUOUS
 62
     7
100
AcDbCircle
 10
703.5834087432
 20
-1675.2577152352
 30
0.0
 40
1.302179857393133
100
AcDbArc
 50
66.2728270789
 51
114.5900180339
  0
LINE
  5
1CC
330
FF
100
AcDbEntity
  8
119_001_SEP-0004
  6
CONTINUOUS
 62
     7
100
AcDbLine
 10
702.4711780884
 20
-1677.6697751186
 30
0.0
 11
702.4711780884
 21
-1676.3697751186
 31
0.0
  0
LINE
  5
1CD
330
FF
100
AcDbEntity
  8
119_001_SEP-0004
  6
CONTINUOUS
 62
     7
100
AcDbLine
 10
704.5536788248
 20
-1676.3697751186
 30
0.0
 11
704.5536788248
 21
-1677.6697751186
 31
0.0
  0
LINE
  5
1CE
330
FF
100
AcDbEntity
  8
119_001_SEP-0004
  6
CONTINUOUS
 62
     7
100
AcDbLine
 10
704.9041932955
 20
-1673.9297751186
 30
0.0
 11
710.587959097
 21
-1673.9297751186
 31
0.0
  0
LINE
  5
1CF
330
FF
100
AcDbEntity
  8
119_001_SEP-0004
  6
CONTINUOUS
 62
     7
100
AcDbLine
 10
700.9137427829
 20
-1677.6697751186
 30
0.0
 11
712.9137427829
 21
-1677.6697751186
 31
0.0
  0
SPLINE
  5
1D0
330
FF
100
AcDbEntity
  8
119_001_SEP-0004
  6
CONTINUOUS
 62
     7
100
AcDbSpline
210
0.0
220
0.0
230
1.0
 70
     8
 71
     3
 72
    12
 73
     8
 74
     0
 42
0.0000000042164393
 43
0.0000000001
 40
0.0
 40
0.0
 40
0.0
 40
0.0
 40
0.0682291690141305
 40
0.3134672799755511
 40
0.5719836964672519
 40
0.8285564505528962
 40
1.0
 40
1.0
 40
1.0
 40
1.0
 10
705.537154233033
 20
-1674.061557743933
 30
0.0
 10
705.5900996313819
 20
-1674.051529082464
 30
0.0
 10
705.8340483222688
 20
-1674.009330774813
 30
0.0
 10
706.2843149852725
 20
-1673.963250243981
 30
0.0
 10
706.8850993405159
 20
-1673.953371738345
 30
0.0
 10
707.4274238369375
 20
-1673.987034832284
 30
0.0
 10
707.7614187686664
 20
-1674.037879738016
 30
0.0
 10
707.8945287738861
 20
-1674.063301633667
 30
0.0
  0
LINE
  5
1D1
330
FF
100
AcDbEntity
  8
119_001_SEP-0004
  6
CONTINUOUS
 62
     7
100
AcDbLine
 10
709.168530923
 20
-1676.3697751186
 30
0.0
 11
709.168530923
 21
-1677.6697751186
 31
0.0
  0
LINE
  5
1D2
330
FF
100
AcDbEntity
  8
119_001_SEP-0004
  6
CONTINUOUS
 62
     7
100
AcDbLine
 10
711.3563074774
 20
-1677.6697751186
 30
0.0
 11
711.3563074774
 21
-1676.3697751186
 31
0.0
  0
SPLINE
  5
1D3
330
FF
100
AcDbEntity
  8
119_001_SEP-0004
  6
CONTINUOUS
 62
     7
100
AcDbSpline
210
0.0
220
0.0
230
1.0
 70
     8
 71
     3
 72
     8
 73
     4
 74
     0
 42
0.0000000387645405
 43
0.0000000001
 40
0.0
 40
0.0
 40
0.0
 40
0.0
 40
1.0
 40
1.0
 40
1.0
 40
1.0
 10
703.2396025078937
 20
-1673.929775118641
 30
0.0
 10
703.1563523725381
 20
-1673.980784564687
 30
0.0
 10
703.0832437456577
 20
-1674.026051949706
 30
0.0
 10
703.0202766272523
 20
-1674.065577273699
 30
0.0
  0
SPLINE
  5
1D4
330
FF
100
AcDbEntity
  8
119_001_SEP-0004
  6
CONTINUOUS
 62
     7
100
AcDbSpline
210
0.0
220
0.0
230
1.0
 70
     8
 71
     3
 72
     8
 73
     4
 74
     0
 42
0.0000000369300002
 43
0.0000000001
 40
0.0
 40
0.0
 40
0.0
 40
0.0
 40
1.0
 40
1.0
 40
1.0
 40
1.0
 10
710.824804842259
 20
-1674.060669624413
 30
0.0
 10
710.7577488635001
 20
-1674.020104661471
 30
0.0
 10
710.6787749353914
 20
-1673.976473159546
 30
0.0
 10
710.5878830579333
 20
-1673.929775118641
 30
0.0
  0
LINE
  5
1D5
330
FF
100
AcDbEntity
  8
119_001_SEP-0004
  6
CONTINUOUS
 62
     7
100
AcDbLine
 10
700.9137427829
 20
-1677.6697751186
 30
0.0
 11
700.9137427829
 21
-1678.6697751186
 31
0.0
  0
LINE
  5
1D6
330
FF
100
AcDbEntity
  8
119_001_SEP-0004
  6
CONTINUOUS
 62
     7
100
AcDbLine
 10
712.9137427829
 20
-1678.6697751186
 30
0.0
 11
712.9137427829
 21
-1677.6697751186
 31
0.0
  0
LINE
  5
1D7
330
FF
100
AcDbEntity
  8
119_001_SEP-0004
  6
CONTINUOUS
 62
     7
100
AcDbLine
 10
773.2396025082
 20
-1673.9297751186
 30
0.0
 11
774.9041932955
 21
-1673.9297751186
 31
0.0
  0
ARC
  5
1D8
330
FF
100
AcDbEntity
  8
119_001_SEP-0004
  6
CONTINUOUS
 62
     7
100
AcDbCircle
 10
773.5834087432
 20
-1675.2577152352
 30
0.0
 40
1.30217985739314
100
AcDbArc
 50
66.2728270789
 51
114.5900180339
  0
LINE
  5
1D9
330
FF
100
AcDbEntity
  8
119_001_SEP-0004
  6
CONTINUOUS
 62
     7
100
AcDbLine
 10
772.4711780884
 20
-1677.6697751186
 30
0.0
 11
772.4711780884
 21
-1676.3697751186
 31
0.0
  0
LINE
  5
1DA
330
FF
100
AcDbEntity
  8
119_001_SEP-0004
  6
CONTINUOUS
 62
     7
100
AcDbLine
 10
774.5536788248
 20
-1676.3697751186
 30
0.0
 11
774.5536788248
 21
-1677.6697751186
 31
0.0
  0
LINE
  5
1DB
330
FF
100
AcDbEntity
  8
119_001_SEP-0004
  6
CONTINUOUS
 62
     7
100
AcDbLine
 10
774.9041932955
 20
-1673.9297751186
 30
0.0
 11
780.587959097
 21
-1673.9297751186
 31
0.0
  0
LINE
  5
1DC
330
FF
100
AcDbEntity
  8
119_001_SEP-0004
  6
CONTINUOUS
 62
     7
100
AcDbLine
 10
770.9137427829
 20
-1677.6697751186
 30
0.0
 11
782.9137427829
 21
-1677.6697751186
 31
0.0
  0
SPLINE
  5
1DD
330
FF
100
AcDbEntity
  8
119_001_SEP-0004
  6
CONTINUOUS
 62
     7
100
AcDbSpline
210
0.0
220
0.0
230
1.0
 70
     8
 71
     3
 72
    12
 73
     8
 74
     0
 42
0.0000000042164393
 43
0.0000000001
 40
0.0
 40
0.0
 40
0.0
 40
0.0
 40
0.0682291690141261
 40
0.3134672799755474
 40
0.5719836964672489
 40
0.8285564505528938
 40
1.0
 40
1.0
 40
1.0
 40
1.0
 10
775.5371542330329
 20
-1674.061557743933
 30
0.0
 10
775.5900996313817
 20
-1674.051529082464
 30
0.0
 10
775.8340483222692
 20
-1674.009330774813
 30
0.0
 10
776.2843149852729
 20
-1673.963250243981
 30
0.0
 10
776.8850993405159
 20
-1673.953371738345
 30
0.0
 10
777.4274238369376
 20
-1673.987034832284
 30
0.0
 10
777.761418768666
 20
-1674.037879738016
 30
0.0
 10
777.8945287738862
 20
-1674.063301633667
 30
0.0
  0
LINE
  5
1DE
330
FF
100
AcDbEntity
  8
119_001_SEP-0004
  6
CONTINUOUS
 62
     7
100
AcDbLine
 10
779.168530923
 20
-1676.3697751186
 30
0.0
 11
779.168530923
 21
-1677.6697751186
 31
0.0
  0
LINE
  5
1DF
330
FF
100
AcDbEntity
  8
119_001_SEP-0004
  6
CONTINUOUS
 62
     7
100
AcDbLine
 10
781.3563074774
 20
-1677.6697751186
 30
0.0
 11
781.3563074774
 21
-1676.3697751186
 31
0.0
  0
SPLINE
  5
1E0
330
FF
100
AcDbEntity
  8
119_001_SEP-0004
  6
CONTINUOUS
 62
     7
100
AcDbSpline
210
0.0
220
0.0
230
1.0
 70
     8
 71
     3
 72
     8
 73
     4
 74
     0
 42
0.0000000387645405
 43
0.0000000001
 40
0.0
 40
0.0
 40
0.0
 40
0.0
 40
1.0
 40
1.0
 40
1.0
 40
1.0
 10
773.2396025078934
 20
-1673.929775118641
 30
0.0
 10
773.1563523725381
 20
-1673.980784564687
 30
0.0
 10
773.0832437456577
 20
-1674.026051949706
 30
0.0
 10
773.0202766272522
 20
-1674.065577273699
 30
0.0
  0
SPLINE
  5
1E1
330
FF
100
AcDbEntity
  8
119_001_SEP-0004
  6
CONTINUOUS
 62
     7
100
AcDbSpline
210
0.0
220
0.0
230
1.0
 70
     8
 71
     3
 72
     8
 73
     4
 74
     0
 42
0.0000000369300002
 43
0.0000000001
 40
0.0
 40
0.0
 40
0.0
 40
0.0
 40
1.0
 40
1.0
 40
1.0
 40
1.0
 10
780.8248048422591
 20
-1674.060669624413
 30
0.0
 10
780.7577488635002
 20
-1674.020104661471
 30
0.0
 10
780.6787749353913
 20
-1673.976473159546
 30
0.0
 10
780.5878830579333
 20
-1673.929775118641
 30
0.0
  0
LINE
  5
1E2
330
FF
100
AcDbEntity
  8
119_001_SEP-0004
  6
CONTINUOUS
 62
     7
100
AcDbLine
 10
770.9137427829
 20
-1677.6697751186
 30
0.0
 11
770.9137427829
 21
-1678.6697751186
 31
0.0
  0
LINE
  5
1E3
330
FF
100
AcDbEntity
  8
119_001_SEP-0004
  6
CONTINUOUS
 62
     7
100
AcDbLine
 10
782.9137427829
 20
-1678.6697751186
 30
0.0
 11
782.9137427829
 21
-1677.6697751186
 31
0.0
  0
ARC
  5
1E4
330
FF
100
AcDbEntity
  8
138_001_SEP-0004
  6
CONTINUOUS
 62
     7
100
AcDbCircle
 10
741.9137427829
 20
-1725.6697751186
 30
0.0
 40
6.25
100
AcDbArc
 50
0.0
 51
71.253514057
  0
ARC
  5
1E5
330
FF
100
AcDbEntity
  8
138_001_SEP-0004
  6
CONTINUOUS
 62
     7
100
AcDbCircle
 10
741.9137427829
 20
-1725.6697751186
 30
0.0
 40
6.249999999999998
100
AcDbArc
 50
83.141667259
 51
106.2375080038
  0
ARC
  5
1E6
330
FF
100
AcDbEntity
  8
138_001_SEP-0004
  6
CONTINUOUS
 62
     7
100
AcDbCircle
 10
741.9137427829
 20
-1725.6697751186
 30
0.0
 40
6.25
100
AcDbArc
 50
118.0174128684
 51
242.92518273
  0
ARC
  5
1E7
330
FF
100
AcDbEntity
  8
138_001_SEP-0004
  6
CONTINUOUS
 62
     7
100
AcDbCircle
 10
741.9137427829
 20
-1725.6697751186
 30
0.0
 40
6.249999999999998
100
AcDbArc
 50
254.3430016636
 51
264.4911213288
  0
ARC
  5
1E8
330
FF
100
AcDbEntity
  8
138_001_SEP-0004
  6
CONTINUOUS
 62
     7
100
AcDbCircle
 10
741.9137427829
 20
-1725.6697751186
 30
0.0
 40
6.250000000000003
100
AcDbArc
 50
275.5088786712
 51
0.0
  0
ARC
  5
1E9
330
FF
100
AcDbEntity
  8
138_001_SEP-0004
  6
CONTINUOUS
 62
     7
100
AcDbCircle
 10
741.9137427829
 20
-1725.6697751186
 30
0.0
 40
3.3
100
AcDbArc
 50
0.0
 51
79.5243183036
  0
ARC
  5
1EA
330
FF
100
AcDbEntity
  8
138_001_SEP-0004
  6
CONTINUOUS
 62
     7
100
AcDbCircle
 10
741.9137427829
 20
-1725.6697751186
 30
0.0
 40
3.299999999999998
100
AcDbArc
 50
100.4756816964
 51
108.5939858455
  0
ARC
  5
1EB
330
FF
100
AcDbEntity
  8
138_001_SEP-0004
  6
CONTINUOUS
 62
     7
100
AcDbCircle
 10
741.9137427829
 20
-1725.6697751186
 30
0.0
 40
3.3
100
AcDbArc
 50
241.0457423108
 51
259.5243183036
  0
ARC
  5
1EC
330
FF
100
AcDbEntity
  8
138_001_SEP-0004
  6
CONTINUOUS
 62
     7
100
AcDbCircle
 10
741.9137427829
 20
-1725.6697751186
 30
0.0
 40
3.299999999999998
100
AcDbArc
 50
280.4756816964
 51
0.0
  0
LINE
  5
1ED
330
FF
100
AcDbEntity
  8
118_001_SEP-0004
  6
CONTINUOUS
 62
     7
100
AcDbLine
 10
917.4137427829
 20
-1786.0697751186
 30
0.0
 11
920.4137427829
 21
-1786.0697751186
 31
0.0
  0
LINE
  5
1EE
330
FF
100
AcDbEntity
  8
118_001_SEP-0004
  6
CONTINUOUS
 62
     7
100
AcDbLine
 10
917.9137427829
 20
-1786.5697751186
 30
0.0
 11
919.9137427829
 21
-1786.5697751186
 31
0.0
  0
LINE
  5
1EF
330
FF
100
AcDbEntity
  8
118_001_SEP-0004
  6
CONTINUOUS
 62
     7
100
AcDbLine
 10
917.4137427829
 20
-1780.6697751186
 30
0.0
 11
917.4137427829
 21
-1786.0697751186
 31
0.0
  0
LINE
  5
1F0
330
FF
100
AcDbEntity
  8
118_001_SEP-0004
  6
CONTINUOUS
 62
     7
100
AcDbLine
 10
920.4137427829
 20
-1786.0697751186
 30
0.0
 11
920.4137427829
 21
-1780.6697751186
 31
0.0
  0
LINE
  5
1F1
330
FF
100
AcDbEntity
  8
118_001_SEP-0004
  6
CONTINUOUS
 62
     7
100
AcDbLine
 10
917.4137427829
 20
-1786.0697751186
 30
0.0
 11
917.9137427829
 21
-1786.5697751186
 31
0.0
  0
LINE
  5
1F2
330
FF
100
AcDbEntity
  8
118_001_SEP-0004
  6
CONTINUOUS
 62
     7
100
AcDbLine
 10
919.9137427829
 20
-1786.5697751186
 30
0.0
 11
920.4137427829
 21
-1786.0697751186
 31
0.0
  0
ENDBLK
  5
1F4
330
FF
100
AcDbEntity
  8
0
100
AcDbBlockEnd
  0
BLOCK
  5
1FE
330
1F6
100
AcDbEntity
  8
0
100
AcDbBlockBegin
  2
GDIMGGROUP8
 70
     0
 10
0.0
 20
0.0
 30
0.0
  3
GDIMGGROUP8
  1

  0
POLYLINE
  5
1F7
330
1F6
100
AcDbEntity
  8
0
  6
CONTINUOUS
 62
     7
100
AcDb2dPolyline
 66
     1
 10
0.0
 20
0.0
 30
0.0
  0
VERTEX
  5
3DF
330
1F7
100
AcDbEntity
  8
0
  6
CONTINUOUS
 62
     7
100
AcDbVertex
100
AcDb2dVertex
 10
1629.0210267773
 20
-1221.4032501473
 30
0.0
  0
VERTEX
  5
3E0
330
1F7
100
AcDbEntity
  8
0
  6
CONTINUOUS
 62
     7
100
AcDbVertex
100
AcDb2dVertex
 10
1617.021026673
 20
-1223.4032501647
 30
0.0
  0
VERTEX
  5
3E1
330
1F7
100
AcDbEntity
  8
0
  6
CONTINUOUS
 62
     7
100
AcDbVertex
100
AcDb2dVertex
 10
1629.0210267773
 20
-1225.403250182
 30
0.0
  0
SEQEND
  5
3E2
330
1F7
100
AcDbEntity
  8
0
  6
CONTINUOUS
 62
     7
  0
POLYLINE
  5
1F8
330
1F6
100
AcDbEntity
  8
0
  6
CONTINUOUS
 62
     7
100
AcDb2dPolyline
 66
     1
 10
0.0
 20
0.0
 30
0.0
  0
VERTEX
  5
3E3
330
1F8
100
AcDbEntity
  8
0
  6
CONTINUOUS
 62
     7
100
AcDbVertex
100
AcDb2dVertex
 10
1865.0210170319
 20
-1221.4032501473
 30
0.0
  0
VERTEX
  5
3E4
330
1F8
100
AcDbEntity
  8
0
  6
CONTINUOUS
 62
     7
100
AcDbVertex
100
AcDb2dVertex
 10
1877.0210171362
 20
-1223.4032501647
 30
0.0
  0
VERTEX
  5
3E5
330
1F8
100
AcDbEntity
  8
0
  6
CONTINUOUS
 62
     7
100
AcDbVertex
100
AcDb2dVertex
 10
1865.0210170319
 20
-1225.403250182
 30
0.0
  0
SEQEND
  5
3E6
330
1F8
100
AcDbEntity
  8
0
  6
CONTINUOUS
 62
     7
  0
LINE
  5
1F9
330
1F6
100
AcDbEntity
  8
0
  6
CONTINUOUS
 62
     7
100
AcDbLine
 10
1617.021026673
 20
-1104.8014967882
 30
0.0
 11
1617.021026673
 21
-1229.4032502168
 31
0.0
  0
LINE
  5
1FA
330
1F6
100
AcDbEntity
  8
0
  6
CONTINUOUS
 62
     7
100
AcDbLine
 10
1877.021026673
 20
-1104.8014967882
 30
0.0
 11
1877.021026673
 21
-1229.4032502168
 31
0.0
  0
LINE
  5
1FB
330
1F6
100
AcDbEntity
  8
0
  6
CONTINUOUS
 62
     7
100
AcDbLine
 10
1617.021026673
 20
-1223.4032501647
 30
0.0
 11
1877.0210171362
 21
-1223.4032501647
 31
0.0
  0
TEXT
  5
1FC
330
1F6
100
AcDbEntity
  8
0
  6
CONTINUOUS
 62
     7
100
AcDbText
 10
1741.2923954604
 20
-1220.4032501647
 30
0.0
 40
12.0
  1
260
  7
SEACAD_ARIAL_TTF
 11
1741.2923954604
 21
-1208.4032501647
 31
0.0
100
AcDbText
 73
     3
  0
TEXT
  5
1FD
330
1F6
100
AcDbEntity
  8
0
  6
CONTINUOUS
 62
     7
100
AcDbText
 10
1726.4081849341
 20
-1220.4032501647
 30
0.0
 40
12.0
  1
q
  7
SEACAD_ARIAL_TTF
 11
1726.4081849341
 21
-1208.4032501647
 31
0.0
100
AcDbText
 73
     3
  0
ENDBLK
  5
1FF
330
1F6
100
AcDbEntity
  8
0
100
AcDbBlockEnd
  0
BLOCK
  5
20A
330
200
100
AcDbEntity
  8
0
100
AcDbBlockBegin
  2
GDIMGGROUP9
 70
     0
 10
0.0
 20
0.0
 30
0.0
  3
GDIMGGROUP9
  1

  0
POLYLINE
  5
201
330
200
100
AcDbEntity
  8
0
  6
CONTINUOUS
 62
     7
100
AcDb2dPolyline
 66
     1
 10
0.0
 20
0.0
 30
0.0
  0
VERTEX
  5
3E7
330
201
100
AcDbEntity
  8
0
  6
CONTINUOUS
 62
     7
100
AcDbVertex
100
AcDb2dVertex
 10
1645.8710267773
 20
-1191.4032427419
 30
0.0
  0
VERTEX
  5
3E8
330
201
100
AcDbEntity
  8
0
  6
CONTINUOUS
 62
     7
100
AcDbVertex
100
AcDb2dVertex
 10
1633.871026673
 20
-1193.4032427592
 30
0.0
  0
VERTEX
  5
3E9
330
201
100
AcDbEntity
  8
0
  6
CONTINUOUS
 62
     7
100
AcDbVertex
100
AcDb2dVertex
 10
1645.8710267773
 20
-1195.4032427766
 30
0.0
  0
SEQEND
  5
3EA
330
201
100
AcDbEntity
  8
0
  6
CONTINUOUS
 62
     7
  0
POLYLINE
  5
202
330
200
100
AcDbEntity
  8
0
  6
CONTINUOUS
 62
     7
100
AcDb2dPolyline
 66
     1
 10
0.0
 20
0.0
 30
0.0
  0
VERTEX
  5
3EB
330
202
100
AcDbEntity
  8
0
  6
CONTINUOUS
 62
     7
100
AcDbVertex
100
AcDb2dVertex
 10
1848.1710277131
 20
-1191.4032427419
 30
0.0
  0
VERTEX
  5
3EC
330
202
100
AcDbEntity
  8
0
  6
CONTINUOUS
 62
     7
100
AcDbVertex
100
AcDb2dVertex
 10
1860.1710278174
 20
-1193.4032427592
 30
0.0
  0
VERTEX
  5
3ED
330
202
100
AcDbEntity
  8
0
  6
CONTINUOUS
 62
     7
100
AcDbVertex
100
AcDb2dVertex
 10
1848.1710277131
 20
-1195.4032427766
 30
0.0
  0
SEQEND
  5
3EE
330
202
100
AcDbEntity
  8
0
  6
CONTINUOUS
 62
     7
  0
LINE
  5
203
330
200
100
AcDbEntity
  8
0
  6
CONTINUOUS
 62
     7
100
AcDbLine
 10
1633.871026673
 20
-997.4083375631
 30
0.0
 11
1633.871026673
 21
-1199.4032428114
 31
0.0
  0
LINE
  5
204
330
200
100
AcDbEntity
  8
0
  6
CONTINUOUS
 62
     7
100
AcDbLine
 10
1860.171026673
 20
-997.4083375631
 30
0.0
 11
1860.171026673
 21
-1199.4032428114
 31
0.0
  0
LINE
  5
205
330
200
100
AcDbEntity
  8
0
  6
CONTINUOUS
 62
     7
100
AcDbLine
 10
1633.871026673
 20
-1193.4032427592
 30
0.0
 11
1860.1710278174
 21
-1193.4032427592
 31
0.0
  0
TEXT
  5
206
330
200
100
AcDbEntity
  8
0
  6
CONTINUOUS
 62
     7
100
AcDbText
 10
1734.4728886059
 20
-1190.4032427592
 30
0.0
 40
12.0
  1
226.3
  7
SEACAD_ARIAL_TTF
 11
1734.4728886059
 21
-1178.4032427592
 31
0.0
100
AcDbText
 73
     3
  0
TEXT
  5
207
330
200
100
AcDbEntity
  8
0
  6
CONTINUOUS
 62
     7
100
AcDbText
 10
1714.222824421
 20
-1190.4032427592
 30
0.0
 40
12.0
  1
(
  7
SEACAD_ARIAL_TTF
 11
1714.222824421
 21
-1178.4032427592
 31
0.0
100
AcDbText
 73
     3
  0
TEXT
  5
208
330
200
100
AcDbEntity
  8
0
  6
CONTINUOUS
 62
     7
100
AcDbText
 10
1719.5886780796
 20
-1190.4032427592
 30
0.0
 40
12.0
  1
q
  7
SEACAD_ARIAL_TTF
 11
1719.5886780796
 21
-1178.4032427592
 31
0.0
100
AcDbText
 73
     3
  0
TEXT
  5
209
330
200
100
AcDbEntity
  8
0
  6
CONTINUOUS
 62
     7
100
AcDbText
 10
1774.4533764108
 20
-1190.4032427592
 30
0.0
 40
12.0
  1
)
  7
SEACAD_ARIAL_TTF
 11
1774.4533764108
 21
-1178.4032427592
 31
0.0
100
AcDbText
 73
     3
  0
ENDBLK
  5
20B
330
200
100
AcDbEntity
  8
0
100
AcDbBlockEnd
  0
BLOCK
  5
214
330
20C
100
AcDbEntity
  8
0
100
AcDbBlockBegin
  2
GDIMGGROUP10
 70
     0
 10
0.0
 20
0.0
 30
0.0
  3
GDIMGGROUP10
  1

  0
POLYLINE
  5
20D
330
20C
100
AcDbEntity
  8
0
  6
CONTINUOUS
 62
     7
100
AcDb2dPolyline
 66
     1
 10
0.0
 20
0.0
 30
0.0
  0
VERTEX
  5
3EF
330
20D
100
AcDbEntity
  8
0
  6
CONTINUOUS
 62
     7
100
AcDbVertex
100
AcDb2dVertex
 10
1659.0210267773
 20
-1161.4032440236
 30
0.0
  0
VERTEX
  5
3F0
330
20D
100
AcDbEntity
  8
0
  6
CONTINUOUS
 62
     7
100
AcDbVertex
100
AcDb2dVertex
 10
1647.021026673
 20
-1163.403244041
 30
0.0
  0
VERTEX
  5
3F1
330
20D
100
AcDbEntity
  8
0
  6
CONTINUOUS
 62
     7
100
AcDbVertex
100
AcDb2dVertex
 10
1659.0210267773
 20
-1165.4032440584
 30
0.0
  0
SEQEND
  5
3F2
330
20D
100
AcDbEntity
  8
0
  6
CONTINUOUS
 62
     7
  0
POLYLINE
  5
20E
330
20C
100
AcDbEntity
  8
0
  6
CONTINUOUS
 62
     7
100
AcDb2dPolyline
 66
     1
 10
0.0
 20
0.0
 30
0.0
  0
VERTEX
  5
3F3
330
20E
100
AcDbEntity
  8
0
  6
CONTINUOUS
 62
     7
100
AcDbVertex
100
AcDb2dVertex
 10
1835.0210295489
 20
-1161.4032440236
 30
0.0
  0
VERTEX
  5
3F4
330
20E
100
AcDbEntity
  8
0
  6
CONTINUOUS
 62
     7
100
AcDbVertex
100
AcDb2dVertex
 10
1847.0210296532
 20
-1163.403244041
 30
0.0
  0
VERTEX
  5
3F5
330
20E
100
AcDbEntity
  8
0
  6
CONTINUOUS
 62
     7
100
AcDbVertex
100
AcDb2dVertex
 10
1835.0210295489
 20
-1165.4032440584
 30
0.0
  0
SEQEND
  5
3F6
330
20E
100
AcDbEntity
  8
0
  6
CONTINUOUS
 62
     7
  0
LINE
  5
20F
330
20C
100
AcDbEntity
  8
0
  6
CONTINUOUS
 62
     7
100
AcDbLine
 10
1647.021026673
 20
-1086.7737404109
 30
0.0
 11
1647.021026673
 21
-1169.4032440932
 31
0.0
  0
LINE
  5
210
330
20C
100
AcDbEntity
  8
0
  6
CONTINUOUS
 62
     7
100
AcDbLine
 10
1847.021026673
 20
-1086.7737404109
 30
0.0
 11
1847.021026673
 21
-1169.4032440932
 31
0.0
  0
LINE
  5
211
330
20C
100
AcDbEntity
  8
0
  6
CONTINUOUS
 62
     7
100
AcDbLine
 10
1647.021026673
 20
-1163.403244041
 30
0.0
 11
1847.0210296532
 21
-1163.403244041
 31
0.0
  0
TEXT
  5
212
330
20C
100
AcDbEntity
  8
0
  6
CONTINUOUS
 62
     7
100
AcDbText
 10
1741.2924017189
 20
-1160.403244041
 30
0.0
 40
12.0
  1
200
  7
SEACAD_ARIAL_TTF
 11
1741.2924017189
 21
-1148.403244041
 31
0.0
100
AcDbText
 73
     3
  0
TEXT
  5
213
330
20C
100
AcDbEntity
  8
0
  6
CONTINUOUS
 62
     7
100
AcDbText
 10
1726.4081911926
 20
-1160.403244041
 30
0.0
 40
12.0
  1
q
  7
SEACAD_ARIAL_TTF
 11
1726.4081911926
 21
-1148.403244041
 31
0.0
100
AcDbText
 73
     3
  0
ENDBLK
  5
215
330
20C
100
AcDbEntity
  8
0
100
AcDbBlockEnd
  0
BLOCK
  5
21D
330
216
100
AcDbEntity
  8
0
100
AcDbBlockBegin
  2
GDIMGGROUP11
 70
     0
 10
0.0
 20
0.0
 30
0.0
  3
GDIMGGROUP11
  1

  0
POLYLINE
  5
217
330
216
100
AcDbEntity
  8
0
  6
CONTINUOUS
 62
     7
100
AcDb2dPolyline
 66
     1
 10
0.0
 20
0.0
 30
0.0
  0
VERTEX
  5
3F7
330
217
100
AcDbEntity
  8
0
  6
CONTINUOUS
 62
     7
100
AcDbVertex
100
AcDb2dVertex
 10
1635.4107246515
 20
-1189.7623363671
 30
0.0
  0
VERTEX
  5
3F8
330
217
100
AcDbEntity
  8
0
  6
CONTINUOUS
 62
     7
100
AcDbVertex
100
AcDb2dVertex
 10
1642.4823575128
 20
-1199.6614278026
 30
0.0
  0
VERTEX
  5
3F9
330
217
100
AcDbEntity
  8
0
  6
CONTINUOUS
 62
     7
100
AcDbVertex
100
AcDb2dVertex
 10
1632.5824589352
 20
-1192.5909249402
 30
0.0
  0
SEQEND
  5
3FA
330
217
100
AcDbEntity
  8
0
  6
CONTINUOUS
 62
     7
  0
POLYLINE
  5
218
330
216
100
AcDbEntity
  8
0
  6
CONTINUOUS
 62
     7
100
AcDb2dPolyline
 66
     1
 10
0.0
 20
0.0
 30
0.0
  0
VERTEX
  5
3FB
330
218
100
AcDbEntity
  8
0
  6
CONTINUOUS
 62
     7
100
AcDbVertex
100
AcDb2dVertex
 10
1539.2322573041
 20
-1093.5948468887
 30
0.0
  0
VERTEX
  5
3FC
330
218
100
AcDbEntity
  8
0
  6
CONTINUOUS
 62
     7
100
AcDbVertex
100
AcDb2dVertex
 10
1529.3323587265
 20
-1086.5243440263
 30
0.0
  0
VERTEX
  5
3FD
330
218
100
AcDbEntity
  8
0
  6
CONTINUOUS
 62
     7
100
AcDbVertex
100
AcDb2dVertex
 10
1536.4039915878
 20
-1096.4234354618
 30
0.0
  0
SEQEND
  5
3FE
330
218
100
AcDbEntity
  8
0
  6
CONTINUOUS
 62
     7
  0
LINE
  5
219
330
216
100
AcDbEntity
  8
0
  6
CONTINUOUS
 62
     7
100
AcDbLine
 10
1743.6271076817
 20
-1098.5051315922
 30
0.0
 11
1638.2399589383
 21
-1203.9043106623
 31
0.0
  0
LINE
  5
21A
330
216
100
AcDbEntity
  8
0
  6
CONTINUOUS
 62
     7
100
AcDbLine
 10
1630.4771076817
 20
-985.3680466024
 30
0.0
 11
1525.0899589383
 21
-1090.7672256725
 31
0.0
  0
LINE
  5
21B
330
216
100
AcDbEntity
  8
0
  6
CONTINUOUS
 62
     7
100
AcDbLine
 10
1642.4823575128
 20
-1199.6614278026
 30
0.0
 11
1529.3323587265
 21
-1086.5243440263
 31
0.0
  0
TEXT
  5
21C
330
216
100
AcDbEntity
  8
0
  6
CONTINUOUS
 62
     7
100
AcDbText
 10
1578.7149121676
 20
-1131.6588623474
 30
0.0
 40
12.0
  1
160
 50
315.0032700743
  7
SEACAD_ARIAL_TTF
 11
1587.1997092428
 21
-1123.1730967017
 31
0.0
100
AcDbText
 73
     3
  0
ENDBLK
  5
21E
330
216
100
AcDbEntity
  8
0
100
AcDbBlockEnd
  0
BLOCK
  5
37E
330
21F
100
AcDbEntity
  8
0
100
AcDbBlockBegin
  2
PIPE_KIT
 70
     0
 10
0.0
 20
0.0
 30
0.0
  3
PIPE_KIT
  1

  0
TEXT
  5
220
330
21F
100
AcDbEntity
  8
SCALE
  6
CONTINUOUS
 62
     7
100
AcDbText
 10
564.8047610709
 20
-1104.5311891747
 30
0.0
 40
15.0
  1
\U+00D822×50 貫通孔
  7
SEACAD_ARIAL_TTF
 11
564.8047610709
 21
-1089.5311891747
 31
0.0
100
AcDbText
 73
     3
  0
INSERT
  5
221
330
21F
100
AcDbEntity
  8
SCALE
 62
     7
100
AcDbBlockReference
  2
SEANNOT_GROUP
 10
64.0808493829
 20
0.0
 30
0.0
  0
CIRCLE
  5
222
330
21F
100
AcDbEntity
  8
_TRANSLATION
  6
CONTINUOUS
 62
     7
100
AcDbCircle
 10
871.9086814923
 20
-1004.1229869813
 30
0.0
 40
0.0099999999999909
  0
CIRCLE
  5
223
330
21F
100
AcDbEntity
  8
_TRANSLATION
  6
CONTINUOUS
 62
     7
100
AcDbCircle
 10
766.2086814923
 20
-1678.7086074577
 30
0.0
 40
0.0099999999999909
  0
LINE
  5
224
330
21F
100
AcDbEntity
  8
_TRANSLATION
  6
CONTINUOUS
 62
     7
100
AcDbLine
 10
1038.612340099
 20
-1004.1229869813
 30
0.0
 11
1038.612340099
 21
-1678.7086074577
 31
0.0
  0
CIRCLE
  5
225
330
21F
100
AcDbEntity
  8
_TRANSLATION
  6
CONTINUOUS
 62
     7
100
AcDbCircle
 10
871.9086814923
 20
-1004.1229869813
 30
0.0
 40
0.0099999999999909
  0
CIRCLE
  5
226
330
21F
100
AcDbEntity
  8
_TRANSLATION
  6
CONTINUOUS
 62
     7
100
AcDbCircle
 10
753.4086814923
 20
-1110.1229869813
 30
0.0
 40
0.0099999999999909
  0
LINE
  5
227
330
21F
100
AcDbEntity
  8
_TRANSLATION
  6
CONTINUOUS
 62
     7
100
AcDbLine
 10
936.7665553506
 20
-1004.1229869813
 30
0.0
 11
936.7665553506
 21
-1110.1229869813
 31
0.0
  0
LINE
  5
228
330
21F
100
AcDbEntity
  8
0-CENTER
  6
CENTER2
 62
     7
100
AcDbLine
 10
805.9895308752
 20
-984.1229869813
 30
0.0
 11
805.9895308752
 21
-1558.1597755994
 31
0.0
  0
LINE
  5
229
330
21F
100
AcDbEntity
  8
0
  6
CONTINUOUS
 62
     7
100
AcDbLine
 10
778.9895308752
 20
-1310.1229869813
 30
0.0
 11
778.9895308752
 21
-1019.1229869813
 31
0.0
  0
LINE
  5
22A
330
21F
100
AcDbEntity
  8
0
  6
CONTINUOUS
 62
     7
100
AcDbLine
 10
832.9895308752
 20
-1019.1229869813
 30
0.0
 11
832.9895308752
 21
-1310.1229869813
 31
0.0
  0
LINE
  5
22B
330
21F
100
AcDbEntity
  8
PHANTOM
  6
PHANTOM2
 62
     7
100
AcDbLine
 10
538.1628335297
 20
-1389.1229869813
 30
0.0
 11
1158.7063927101
 21
-1389.1229869813
 31
0.0
  0
LINE
  5
22C
330
21F
100
AcDbEntity
  8
PHANTOM
  6
PHANTOM2
 62
     7
100
AcDbLine
 10
538.1628335297
 20
-1404.1229869813
 30
0.0
 11
1159.3873797944
 21
-1404.1229869813
 31
0.0
  0
LINE
  5
22D
330
21F
100
AcDbEntity
  8
SCALE
  6
CONTINUOUS
 62
     7
100
AcDbLine
 10
695.3439004685
 20
-1138.8058549013
 30
0.0
 11
687.7150776212
 21
-1164.8776159659
 31
0.0
  0
LINE
  5
22E
330
21F
100
AcDbEntity
  8
SCALE
  6
CONTINUOUS
 62
     7
100
AcDbLine
 10
695.3439004685
 20
-1138.8058549013
 30
0.0
 11
702.9727233157
 21
-1164.8776159659
 31
0.0
  0
LINE
  5
22F
330
21F
100
AcDbEntity
  8
SCALE
  6
CONTINUOUS
 62
     7
100
AcDbLine
 10
695.3439004685
 20
-1138.8058549013
 30
0.0
 11
695.3439004685
 21
-1186.3058549013
 31
0.0
  0
TEXT
  5
230
330
21F
100
AcDbEntity
  8
SCALE
  6
CONTINUOUS
 62
     7
100
AcDbText
 10
663.7960362785
 20
-1177.3793684706
 30
0.0
 40
20.0
  1
A
  7
SEACAD_ARIAL_TTF
 11
663.7960362785
 21
-1157.3793684706
 31
0.0
100
AcDbText
 73
     3
  0
LINE
  5
231
330
21F
100
AcDbEntity
  8
SCALE
  6
CONTINUOUS
 62
     7
100
AcDbLine
 10
672.8439004685
 20
-1138.8058549013
 30
0.0
 11
717.8439004685
 21
-1138.8058549013
 31
0.0
  0
LINE
  5
232
330
21F
100
AcDbEntity
  8
0
  6
CONTINUOUS
 62
     7
100
AcDbLine
 10
830.2895308752
 20
-1568.7086074577
 30
0.0
 11
830.2895308752
 21
-1538.7250758057
 31
0.0
  0
LINE
  5
233
330
21F
100
AcDbEntity
  8
0
  6
CONTINUOUS
 62
     7
100
AcDbLine
 10
781.6895308752
 20
-1568.7086074577
 30
0.0
 11
781.6895308752
 21
-1538.7250758057
 31
0.0
  0
CIRCLE
  5
234
330
21F
100
AcDbEntity
  8
_TRANSLATION
  6
CONTINUOUS
 62
     7
100
AcDbCircle
 10
768.9373013481
 20
-1568.7086074577
 30
0.0
 40
0.0099999999999909
  0
CIRCLE
  5
235
330
21F
100
AcDbEntity
  8
_TRANSLATION
  6
CONTINUOUS
 62
     7
100
AcDbCircle
 10
766.2086814923
 20
-1678.7086074577
 30
0.0
 40
0.0099999999999909
  0
LINE
  5
236
330
21F
100
AcDbEntity
  8
_TRANSLATION
  6
CONTINUOUS
 62
     7
100
AcDbLine
 10
832.8974348016
 20
-1568.7086074577
 30
0.0
 11
832.8974348016
 21
-1678.7086074577
 31
0.0
  0
LINE
  5
237
330
21F
100
AcDbEntity
  8
0-CENTER
  6
CENTER2
 62
     7
100
AcDbLine
 10
805.898220225
 20
-1667.6908882515
 30
0.0
 11
805.898220225
 21
-1694.4399122925
 31
0.0
  0
LINE
  5
238
330
21F
100
AcDbEntity
  8
0
  6
CONTINUOUS
 62
     7
100
AcDbLine
 10
830.2895308752
 20
-1633.2075857343
 30
0.0
 11
830.2895308752
 21
-1674.0697751179
 31
0.0
  0
LINE
  5
239
330
21F
100
AcDbEntity
  8
0
  6
CONTINUOUS
 62
     7
100
AcDbLine
 10
781.6895308752
 20
-1678.7086074577
 30
0.0
 11
781.6895308752
 21
-1676.3697751186
 31
0.0
  0
LINE
  5
23A
330
21F
100
AcDbEntity
  8
0
  6
CONTINUOUS
 62
     7
100
AcDbLine
 10
781.6895308752
 20
-1678.7086074577
 30
0.0
 11
830.2895308752
 21
-1678.7086074577
 31
0.0
  0
LINE
  5
23B
330
21F
100
AcDbEntity
  8
0
  6
CONTINUOUS
 62
     7
100
AcDbLine
 10
833.018150731
 20
-1568.7086074577
 30
0.0
 11
833.018150731
 21
-1673.2086074577
 31
0.0
  0
LINE
  5
23C
330
21F
100
AcDbEntity
  8
0-HIDDEN
  6
HIDDEN2
 62
     7
100
AcDbLine
 10
830.768150731
 20
-1568.7086074577
 30
0.0
 11
830.768150731
 21
-1633.0371619435
 31
0.0
  0
LINE
  5
23D
330
21F
100
AcDbEntity
  8
0-HIDDEN
  6
HIDDEN2
 62
     7
100
AcDbLine
 10
781.268150731
 20
-1568.7086074577
 30
0.0
 11
781.268150731
 21
-1673.4586074577
 31
0.0
  0
LINE
  5
23E
330
21F
100
AcDbEntity
  8
0
  6
CONTINUOUS
 62
     7
100
AcDbLine
 10
779.018150731
 20
-1568.7086074577
 30
0.0
 11
779.018150731
 21
-1628.3556569704
 31
0.0
  0
SPLINE
  5
23F
330
21F
100
AcDbEntity
  8
SCALE
  6
CONTINUOUS
 62
     7
100
AcDbSpline
210
0.0
220
0.0
230
1.0
 70
     8
 71
     3
 72
    14
 73
    10
 74
     0
 42
0.0000000000981946
 43
0.0000000001
 40
0.0
 40
0.0
 40
0.0
 40
0.0
 40
0.1700895715637234
 40
0.3285167343649004
 40
0.5459597675904961
 40
0.6844564378289414
 40
0.8091350356534256
 40
0.9404544565456595
 40
1.0
 40
1.0
 40
1.0
 40
1.0
 10
833.0181507310041
 20
-1632.070344891845
 30
0.0
 10
829.2523205054489
 20
-1633.305741132151
 30
0.0
 10
819.7307800561149
 20
-1636.223184845295
 30
0.0
 10
826.6615936530873
 20
-1654.988714951967
 30
0.0
 10
805.0589466497375
 20
-1646.916428758114
 30
0.0
 10
805.1042894467387
 20
-1664.034351613044
 30
0.0
 10
792.9933833417687
 20
-1659.425631522318
 30
0.0
 10
791.4643496717209
 20
-1668.694753280725
 30
0.0
 10
791.4789585635442
 20
-1672.810983702476
 30
0.0
 10
791.3652419244581
 20
-1674.069775117867
 30
0.0
  0
LINE
  5
240
330
21F
100
AcDbEntity
  8
0
  6
CONTINUOUS
 62
     7
100
AcDbLine
 10
779.018150731
 20
-1628.3556569704
 30
0.0
 11
779.018150731
 21
-1673.2086074577
 31
0.0
  0
LINE
  5
241
330
21F
100
AcDbEntity
  8
0
  6
CONTINUOUS
 62
     7
100
AcDbLine
 10
774.018150731
 20
-1673.2086074577
 30
0.0
 11
774.018150731
 21
-1674.0697751179
 31
0.0
  0
ARC
  5
242
330
21F
100
AcDbEntity
  8
0-HIDDEN
  6
HIDDEN2
 62
     7
100
AcDbCircle
 10
779.018150731
 20
-1673.4586074577
 30
0.0
 40
2.25
100
AcDbArc
 50
344.2387113669
 51
0.0
  0
LINE
  5
243
330
21F
100
AcDbEntity
  8
0
  6
CONTINUOUS
 62
     7
100
AcDbLine
 10
774.018150731
 20
-1673.2086074577
 30
0.0
 11
779.018150731
 21
-1673.2086074577
 31
0.0
  0
LINE
  5
244
330
21F
100
AcDbEntity
  8
0
  6
CONTINUOUS
 62
     7
100
AcDbLine
 10
830.768150731
 20
-1633.0371619435
 30
0.0
 11
830.768150731
 21
-1673.4586074577
 31
0.0
  0
LINE
  5
245
330
21F
100
AcDbEntity
  8
0
  6
CONTINUOUS
 62
     7
100
AcDbLine
 10
838.018150731
 20
-1673.2086074577
 30
0.0
 11
833.018150731
 21
-1673.2086074577
 31
0.0
  0
ARC
  5
246
330
21F
100
AcDbEntity
  8
0
  6
CONTINUOUS
 62
     7
100
AcDbCircle
 10
833.0181507313
 20
-1673.4586074576
 30
0.0
 40
2.25
100
AcDbArc
 50
180.0000000027
 51
195.7612886359
  0
LINE
  5
247
330
21F
100
AcDbEntity
  8
0
  6
CONTINUOUS
 62
     7
100
AcDbLine
 10
838.018150731
 20
-1673.2086074577
 30
0.0
 11
838.018150731
 21
-1674.0697751179
 31
0.0
  0
CIRCLE
  5
248
330
21F
100
AcDbEntity
  8
0
  6
CONTINUOUS
 62
     7
100
AcDbCircle
 10
806.018150731
 20
-1598.7086074577
 30
0.0
 40
5.5
  0
LINE
  5
249
330
21F
100
AcDbEntity
  8
0
  6
CONTINUOUS
 62
     7
100
AcDbLine
 10
811.518150731
 20
-1607.7086074577
 30
0.0
 11
800.518150731
 21
-1607.7086074577
 31
0.0
  0
LINE
  5
24A
330
21F
100
AcDbEntity
  8
0
  6
CONTINUOUS
 62
     7
100
AcDbLine
 10
779.018150731
 20
-1568.7086074577
 30
0.0
 11
833.018150731
 21
-1568.7086074577
 31
0.0
  0
LINE
  5
24B
330
21F
100
AcDbEntity
  8
0
  6
CONTINUOUS
 62
     7
100
AcDbLine
 10
800.518150731
 20
-1589.7086074577
 30
0.0
 11
811.518150731
 21
-1589.7086074577
 31
0.0
  0
CIRCLE
  5
24C
330
21F
100
AcDbEntity
  8
0SM
  6
CONTINUOUS
 62
     7
100
AcDbCircle
 10
806.018150731
 20
-1598.7086074577
 30
0.0
 40
7.800000000000068
  0
LINE
  5
24D
330
21F
100
AcDbEntity
  8
0SM
  6
CONTINUOUS
 62
     7
100
AcDbLine
 10
801.5148186313
 20
-1606.5086074577
 30
0.0
 11
810.5214828307
 21
-1606.5086074577
 31
0.0
  0
LINE
  5
24E
330
21F
100
AcDbEntity
  8
0SM
  6
CONTINUOUS
 62
     7
100
AcDbLine
 10
810.5214828307
 20
-1590.9086074577
 30
0.0
 11
801.5148186313
 21
-1590.9086074577
 31
0.0
  0
ARC
  5
24F
330
21F
100
AcDbEntity
  8
0
  6
CONTINUOUS
 62
     7
100
AcDbCircle
 10
800.518150731
 20
-1594.7086074577
 30
0.0
 40
5.0
100
AcDbArc
 50
90.0
 51
180.0
  0
LINE
  5
250
330
21F
100
AcDbEntity
  8
0
  6
CONTINUOUS
 62
     7
100
AcDbLine
 10
795.518150731
 20
-1602.7086074577
 30
0.0
 11
795.518150731
 21
-1594.7086074577
 31
0.0
  0
ARC
  5
251
330
21F
100
AcDbEntity
  8
0
  6
CONTINUOUS
 62
     7
100
AcDbCircle
 10
800.518150731
 20
-1602.7086074577
 30
0.0
 40
5.0
100
AcDbArc
 50
180.0
 51
270.0
  0
LINE
  5
252
330
21F
100
AcDbEntity
  8
0SM
  6
CONTINUOUS
 62
     7
100
AcDbLine
 10
801.5148186313
 20
-1590.9086074577
 30
0.0
 11
797.0114865316
 21
-1598.7086074577
 31
0.0
  0
LINE
  5
253
330
21F
100
AcDbEntity
  8
0SM
  6
CONTINUOUS
 62
     7
100
AcDbLine
 10
797.0114865316
 20
-1598.7086074577
 30
0.0
 11
801.5148186313
 21
-1606.5086074577
 31
0.0
  0
ARC
  5
254
330
21F
100
AcDbEntity
  8
0
  6
CONTINUOUS
 62
     7
100
AcDbCircle
 10
811.518150731
 20
-1594.7086074577
 30
0.0
 40
5.0
100
AcDbArc
 50
0.0
 51
90.0
  0
LINE
  5
255
330
21F
100
AcDbEntity
  8
0
  6
CONTINUOUS
 62
     7
100
AcDbLine
 10
816.518150731
 20
-1594.7086074577
 30
0.0
 11
816.518150731
 21
-1602.7086074577
 31
0.0
  0
ARC
  5
256
330
21F
100
AcDbEntity
  8
0
  6
CONTINUOUS
 62
     7
100
AcDbCircle
 10
811.518150731
 20
-1602.7086074577
 30
0.0
 40
5.0
100
AcDbArc
 50
270.0
 51
0.0
  0
LINE
  5
257
330
21F
100
AcDbEntity
  8
0SM
  6
CONTINUOUS
 62
     7
100
AcDbLine
 10
815.0248149304
 20
-1598.7086074577
 30
0.0
 11
810.5214828307
 21
-1590.9086074577
 31
0.0
  0
LINE
  5
258
330
21F
100
AcDbEntity
  8
0SM
  6
CONTINUOUS
 62
     7
100
AcDbLine
 10
810.5214828307
 20
-1606.5086074577
 30
0.0
 11
815.0248149304
 21
-1598.7086074577
 31
0.0
  0
LINE
  5
259
330
21F
100
AcDbEntity
  8
0
  6
CONTINUOUS
 62
     7
100
AcDbLine
 10
781.6895308752
 20
-1389.1229869813
 30
0.0
 11
781.6895308752
 21
-1310.1229869813
 31
0.0
  0
LINE
  5
25A
330
21F
100
AcDbEntity
  8
0
  6
CONTINUOUS
 62
     7
100
AcDbLine
 10
830.2895308752
 20
-1310.1229869813
 30
0.0
 11
830.2895308752
 21
-1389.1229869813
 31
0.0
  0
CIRCLE
  5
25B
330
21F
100
AcDbEntity
  8
_TRANSLATION
  6
CONTINUOUS
 62
     7
100
AcDbCircle
 10
711.9086814923
 20
-1434.4225884934
 30
0.0
 40
0.0099999999999909
  0
CIRCLE
  5
25C
330
21F
100
AcDbEntity
  8
_TRANSLATION
  6
CONTINUOUS
 62
     7
100
AcDbCircle
 10
771.9086814923
 20
-1434.3221286633
 30
0.0
 40
0.0099999999999909
  0
LINE
  5
25D
330
21F
100
AcDbEntity
  8
_TRANSLATION
  6
CONTINUOUS
 62
     7
100
AcDbLine
 10
711.9086814923
 20
-1472.5008837773
 30
0.0
 11
771.9086814923
 21
-1472.5008837773
 31
0.0
  0
LINE
  5
25E
330
21F
100
AcDbEntity
  8
0
  6
CONTINUOUS
 62
     7
100
AcDbLine
 10
781.6895308752
 20
-1505.7175233056
 30
0.0
 11
781.6895308752
 21
-1436.7272348814
 31
0.0
  0
LINE
  5
25F
330
21F
100
AcDbEntity
  8
0
  6
CONTINUOUS
 62
     7
100
AcDbLine
 10
830.2895308752
 20
-1436.7272348814
 30
0.0
 11
830.2895308752
 21
-1505.7175233056
 31
0.0
  0
CIRCLE
  5
260
330
21F
100
AcDbEntity
  8
_TRANSLATION
  6
CONTINUOUS
 62
     7
100
AcDbCircle
 10
717.6086814923
 20
-1538.7250758057
 30
0.0
 40
0.0099999999999909
  0
CIRCLE
  5
261
330
21F
100
AcDbEntity
  8
_TRANSLATION
  6
CONTINUOUS
 62
     7
100
AcDbCircle
 10
766.2086814923
 20
-1538.7250758057
 30
0.0
 40
0.0099999999999909
  0
LINE
  5
262
330
21F
100
AcDbEntity
  8
_TRANSLATION
  6
CONTINUOUS
 62
     7
100
AcDbLine
 10
717.6086814923
 20
-1523.5217616638
 30
0.0
 11
766.2086814923
 21
-1523.5217616638
 31
0.0
  0
ARC
  5
263
330
21F
100
AcDbEntity
  8
0
  6
CONTINUOUS
 62
     7
100
AcDbCircle
 10
805.9895308752
 20
-1364.1229869813
 30
0.0
 40
74.99999999999997
100
AcDbArc
 50
311.2998727917
 51
325.7578312974
  0
LINE
  5
264
330
21F
100
AcDbEntity
  8
0
  6
CONTINUOUS
 62
     7
100
AcDbLine
 10
867.9895308752
 20
-1404.1229869813
 30
0.0
 11
805.9895308752
 21
-1404.1229869813
 31
0.0
  0
LINE
  5
265
330
21F
100
AcDbEntity
  8
0
  6
CONTINUOUS
 62
     7
100
AcDbLine
 10
743.9895308752
 20
-1404.1229869813
 30
0.0
 11
805.9895308752
 21
-1404.1229869813
 31
0.0
  0
LINE
  5
266
330
21F
100
AcDbEntity
  8
0
  6
CONTINUOUS
 62
     7
100
AcDbLine
 10
780.4895308752
 20
-1436.7272348814
 30
0.0
 11
831.4895308752
 21
-1436.7272348814
 31
0.0
  0
LINE
  5
267
330
21F
100
AcDbEntity
  8
0
  6
CONTINUOUS
 62
     7
100
AcDbLine
 10
755.9895308752
 20
-1420.4679068943
 30
0.0
 11
855.9895308752
 21
-1420.4679068943
 31
0.0
  0
ARC
  5
268
330
21F
100
AcDbEntity
  8
0
  6
CONTINUOUS
 62
     7
100
AcDbCircle
 10
805.9895308752
 20
-1364.1229869813
 30
0.0
 40
75.0
100
AcDbArc
 50
214.2421687026
 51
228.7001272083
  0
ARC
  5
269
330
21F
100
AcDbEntity
  8
0
  6
CONTINUOUS
 62
     7
100
AcDbCircle
 10
805.9895308752
 20
-1319.4679068943
 30
0.0
 40
120.0
100
AcDbArc
 50
247.975687163
 51
257.7311010041
  0
ARC
  5
26A
330
21F
100
AcDbEntity
  8
0
  6
CONTINUOUS
 62
     7
100
AcDbCircle
 10
763.9895308752
 20
-1423.2946857136
 30
0.0
 40
8.0
100
AcDbArc
 50
180.0
 51
247.975687163
  0
LINE
  5
26B
330
21F
100
AcDbEntity
  8
0
  6
CONTINUOUS
 62
     7
100
AcDbLine
 10
755.9895308752
 20
-1423.2946857136
 30
0.0
 11
755.9895308752
 21
-1420.4679068943
 31
0.0
  0
LINE
  5
26C
330
21F
100
AcDbEntity
  8
0
  6
CONTINUOUS
 62
     7
100
AcDbLine
 10
743.9895308752
 20
-1406.3248826733
 30
0.0
 11
743.9895308752
 21
-1404.1229869813
 31
0.0
  0
ARC
  5
26D
330
21F
100
AcDbEntity
  8
0
  6
CONTINUOUS
 62
     7
100
AcDbCircle
 10
805.9895308752
 20
-1319.4679068943
 30
0.0
 40
120.0
100
AcDbArc
 50
282.2688989959
 51
292.024312837
  0
ARC
  5
26E
330
21F
100
AcDbEntity
  8
0
  6
CONTINUOUS
 62
     7
100
AcDbCircle
 10
847.9895308752
 20
-1423.2946857136
 30
0.0
 40
8.0
100
AcDbArc
 50
292.024312837
 51
0.0
  0
LINE
  5
26F
330
21F
100
AcDbEntity
  8
0
  6
CONTINUOUS
 62
     7
100
AcDbLine
 10
855.9895308752
 20
-1423.2946857136
 30
0.0
 11
855.9895308752
 21
-1420.4679068943
 31
0.0
  0
LINE
  5
270
330
21F
100
AcDbEntity
  8
0
  6
CONTINUOUS
 62
     7
100
AcDbLine
 10
867.9895308752
 20
-1406.3248826733
 30
0.0
 11
867.9895308752
 21
-1404.1229869813
 31
0.0
  0
TEXT
  5
271
330
21F
100
AcDbEntity
  8
SCALE
  6
CONTINUOUS
 62
     7
100
AcDbText
 10
1172.6402853753
 20
-1453.5213045958
 30
0.0
 40
15.0
  1
天井面
  7
SEACAD_ARIAL_TTF
 11
1172.6402853753
 21
-1438.5213045958
 31
0.0
100
AcDbText
 73
     3
  0
INSERT
  5
272
330
21F
100
AcDbEntity
  8
SCALE
 62
     7
100
AcDbBlockReference
  2
SEANNOT_GROUP1
 10
64.0808493829
 20
0.0
 30
0.0
  0
CIRCLE
  5
273
330
21F
100
AcDbEntity
  8
_TRANSLATION
  6
CONTINUOUS
 62
     7
100
AcDbCircle
 10
753.4086814923
 20
-1110.1229869813
 30
0.0
 40
0.0099999999999909
  0
CIRCLE
  5
274
330
21F
100
AcDbEntity
  8
_TRANSLATION
  6
CONTINUOUS
 62
     7
100
AcDbCircle
 10
741.9086814923
 20
-1260.1229869813
 30
0.0
 40
0.0099999999999909
  0
LINE
  5
275
330
21F
100
AcDbEntity
  8
_TRANSLATION
  6
CONTINUOUS
 62
     7
100
AcDbLine
 10
936.7665553506
 20
-1110.1229869813
 30
0.0
 11
936.7665553506
 21
-1260.1229869813
 31
0.0
  0
TEXT
  5
276
330
21F
100
AcDbEntity
  8
SCALE
  6
CONTINUOUS
 62
     7
100
AcDbText
 10
750.3428572059
 20
-1218.776957338
 30
0.0
 40
25.0
  1
c
  7
SEACAD_ARIAL_TTF
 11
750.3428572059
 21
-1193.776957338
 31
0.0
100
AcDbText
 73
     3
  0
LINE
  5
277
330
21F
100
AcDbEntity
  8
0
  6
CONTINUOUS
 62
     7
100
AcDbLine
 10
794.4895308752
 20
-1216.1229869813
 30
0.0
 11
794.4895308752
 21
-1204.1229869813
 31
0.0
  0
LINE
  5
278
330
21F
100
AcDbEntity
  8
0
  6
CONTINUOUS
 62
     7
100
AcDbLine
 10
817.4895308752
 20
-1216.1229869813
 30
0.0
 11
817.4895308752
 21
-1204.1229869813
 31
0.0
  0
LINE
  5
279
330
21F
100
AcDbEntity
  8
0-HIDDEN
  6
HIDDEN2
 62
     7
100
AcDbLine
 10
781.6895308752
 20
-1310.1229869813
 30
0.0
 11
781.6895308752
 21
-1230.1229869813
 31
0.0
  0
LINE
  5
27A
330
21F
100
AcDbEntity
  8
0-HIDDEN
  6
HIDDEN2
 62
     7
100
AcDbLine
 10
830.2895308752
 20
-1230.1229869813
 30
0.0
 11
830.2895308752
 21
-1310.1229869813
 31
0.0
  0
LINE
  5
27B
330
21F
100
AcDbEntity
  8
0
  6
CONTINUOUS
 62
     7
100
AcDbLine
 10
832.9895308752
 20
-1310.1229869813
 30
0.0
 11
778.9895308752
 21
-1310.1229869813
 31
0.0
  0
LINE
  5
27C
330
21F
100
AcDbEntity
  8
0
  6
CONTINUOUS
 62
     7
100
AcDbLine
 10
813.4895308752
 20
-1220.1229869813
 30
0.0
 11
798.4895308752
 21
-1220.1229869813
 31
0.0
  0
LINE
  5
27D
330
21F
100
AcDbEntity
  8
0
  6
CONTINUOUS
 62
     7
100
AcDbLine
 10
813.4895308752
 20
-1250.1229869813
 30
0.0
 11
798.4895308752
 21
-1250.1229869813
 31
0.0
  0
LINE
  5
27E
330
21F
100
AcDbEntity
  8
0
  6
CONTINUOUS
 62
     7
100
AcDbLine
 10
805.9895308752
 20
-1250.8853826743
 30
0.0
 11
797.9895308752
 21
-1255.5041848278
 31
0.0
  0
LINE
  5
27F
330
21F
100
AcDbEntity
  8
0-HIDDEN
  6
HIDDEN2
 62
     7
100
AcDbLine
 10
781.6895308752
 20
-1230.1229869813
 30
0.0
 11
830.2895308752
 21
-1230.1229869813
 31
0.0
  0
LINE
  5
280
330
21F
100
AcDbEntity
  8
0
  6
CONTINUOUS
 62
     7
100
AcDbLine
 10
813.4895308752
 20
-1270.1229869813
 30
0.0
 11
798.4895308752
 21
-1270.1229869813
 31
0.0
  0
CIRCLE
  5
281
330
21F
100
AcDbEntity
  8
0
  6
CONTINUOUS
 62
     7
100
AcDbCircle
 10
805.9895308752
 20
-1260.1229869813
 30
0.0
 40
8.0
  0
LINE
  5
282
330
21F
100
AcDbEntity
  8
0
  6
CONTINUOUS
 62
     7
100
AcDbLine
 10
797.9895308752
 20
-1264.7417891348
 30
0.0
 11
805.9895308752
 21
-1269.3605912883
 31
0.0
  0
TEXT
  5
283
330
21F
100
AcDbEntity
  8
SCALE
  6
CONTINUOUS
 62
     7
100
AcDbText
 10
750.3428572059
 20
-1268.776957338
 30
0.0
 40
25.0
  1
d
  7
SEACAD_ARIAL_TTF
 11
750.3428572059
 21
-1243.776957338
 31
0.0
100
AcDbText
 73
     3
  0
ARC
  5
284
330
21F
100
AcDbEntity
  8
0
  6
CONTINUOUS
 62
     7
100
AcDbCircle
 10
798.4895308752
 20
-1254.1229869813
 30
0.0
 40
4.0
100
AcDbArc
 50
90.0
 51
180.0
  0
LINE
  5
285
330
21F
100
AcDbEntity
  8
0
  6
CONTINUOUS
 62
     7
100
AcDbLine
 10
797.9895308752
 20
-1255.5041848278
 30
0.0
 11
797.9895308752
 21
-1264.7417891348
 31
0.0
  0
ARC
  5
286
330
21F
100
AcDbEntity
  8
0
  6
CONTINUOUS
 62
     7
100
AcDbCircle
 10
798.4895308752
 20
-1266.1229869813
 30
0.0
 40
4.0
100
AcDbArc
 50
180.0
 51
270.0
  0
LINE
  5
287
330
21F
100
AcDbEntity
  8
0
  6
CONTINUOUS
 62
     7
100
AcDbLine
 10
794.4895308752
 20
-1266.1229869813
 30
0.0
 11
794.4895308752
 21
-1254.1229869813
 31
0.0
  0
ARC
  5
288
330
21F
100
AcDbEntity
  8
0
  6
CONTINUOUS
 62
     7
100
AcDbCircle
 10
798.4895308752
 20
-1216.1229869813
 30
0.0
 40
4.0
100
AcDbArc
 50
180.0
 51
270.0
  0
LINE
  5
289
330
21F
100
AcDbEntity
  8
0
  6
CONTINUOUS
 62
     7
100
AcDbLine
 10
813.9895308752
 20
-1255.5041848278
 30
0.0
 11
805.9895308752
 21
-1250.8853826743
 31
0.0
  0
ARC
  5
28A
330
21F
100
AcDbEntity
  8
0
  6
CONTINUOUS
 62
     7
100
AcDbCircle
 10
813.4895308752
 20
-1254.1229869813
 30
0.0
 40
4.0
100
AcDbArc
 50
0.0
 51
90.0
  0
LINE
  5
28B
330
21F
100
AcDbEntity
  8
0
  6
CONTINUOUS
 62
     7
100
AcDbLine
 10
813.9895308752
 20
-1264.7417891348
 30
0.0
 11
813.9895308752
 21
-1255.5041848278
 31
0.0
  0
ARC
  5
28C
330
21F
100
AcDbEntity
  8
0
  6
CONTINUOUS
 62
     7
100
AcDbCircle
 10
813.4895308752
 20
-1266.1229869813
 30
0.0
 40
4.0
100
AcDbArc
 50
270.0
 51
0.0
  0
LINE
  5
28D
330
21F
100
AcDbEntity
  8
0
  6
CONTINUOUS
 62
     7
100
AcDbLine
 10
805.9895308752
 20
-1269.3605912883
 30
0.0
 11
813.9895308752
 21
-1264.7417891348
 31
0.0
  0
LINE
  5
28E
330
21F
100
AcDbEntity
  8
0
  6
CONTINUOUS
 62
     7
100
AcDbLine
 10
817.4895308752
 20
-1266.1229869813
 30
0.0
 11
817.4895308752
 21
-1254.1229869813
 31
0.0
  0
ARC
  5
28F
330
21F
100
AcDbEntity
  8
0
  6
CONTINUOUS
 62
     7
100
AcDbCircle
 10
813.4895308752
 20
-1216.1229869813
 30
0.0
 40
4.0
100
AcDbArc
 50
270.0
 51
0.0
  0
TEXT
  5
290
330
21F
100
AcDbEntity
  8
SCALE
  6
CONTINUOUS
 62
     7
100
AcDbText
 10
750.3428572059
 20
-1168.776957338
 30
0.0
 40
25.0
  1
b
  7
SEACAD_ARIAL_TTF
 11
750.3428572059
 21
-1143.776957338
 31
0.0
100
AcDbText
 73
     3
  0
LINE
  5
291
330
21F
100
AcDbEntity
  8
0
  6
CONTINUOUS
 62
     7
100
AcDbLine
 10
794.4895308752
 20
-1166.1229869813
 30
0.0
 11
794.4895308752
 21
-1154.1229869813
 31
0.0
  0
LINE
  5
292
330
21F
100
AcDbEntity
  8
0
  6
CONTINUOUS
 62
     7
100
AcDbLine
 10
817.4895308752
 20
-1166.1229869813
 30
0.0
 11
817.4895308752
 21
-1154.1229869813
 31
0.0
  0
LINE
  5
293
330
21F
100
AcDbEntity
  8
0
  6
CONTINUOUS
 62
     7
100
AcDbLine
 10
813.4895308752
 20
-1170.1229869813
 30
0.0
 11
798.4895308752
 21
-1170.1229869813
 31
0.0
  0
LINE
  5
294
330
21F
100
AcDbEntity
  8
0
  6
CONTINUOUS
 62
     7
100
AcDbLine
 10
813.4895308752
 20
-1200.1229869813
 30
0.0
 11
798.4895308752
 21
-1200.1229869813
 31
0.0
  0
ARC
  5
295
330
21F
100
AcDbEntity
  8
0
  6
CONTINUOUS
 62
     7
100
AcDbCircle
 10
798.4895308752
 20
-1204.1229869813
 30
0.0
 40
4.0
100
AcDbArc
 50
90.0
 51
180.0
  0
ARC
  5
296
330
21F
100
AcDbEntity
  8
0
  6
CONTINUOUS
 62
     7
100
AcDbCircle
 10
798.4895308752
 20
-1166.1229869813
 30
0.0
 40
4.0
100
AcDbArc
 50
180.0
 51
270.0
  0
ARC
  5
297
330
21F
100
AcDbEntity
  8
0
  6
CONTINUOUS
 62
     7
100
AcDbCircle
 10
813.4895308752
 20
-1204.1229869813
 30
0.0
 40
4.0
100
AcDbArc
 50
0.0
 51
90.0
  0
ARC
  5
298
330
21F
100
AcDbEntity
  8
0
  6
CONTINUOUS
 62
     7
100
AcDbCircle
 10
813.4895308752
 20
-1166.1229869813
 30
0.0
 40
4.0
100
AcDbArc
 50
270.0
 51
0.0
  0
LINE
  5
299
330
21F
100
AcDbEntity
  8
0
  6
CONTINUOUS
 62
     7
100
AcDbLine
 10
813.4895308752
 20
-1100.1229869813
 30
0.0
 11
798.4895308752
 21
-1100.1229869813
 31
0.0
  0
LINE
  5
29A
330
21F
100
AcDbEntity
  8
0
  6
CONTINUOUS
 62
     7
100
AcDbLine
 10
813.4895308752
 20
-1120.1229869813
 30
0.0
 11
798.4895308752
 21
-1120.1229869813
 31
0.0
  0
LINE
  5
29B
330
21F
100
AcDbEntity
  8
0
  6
CONTINUOUS
 62
     7
100
AcDbLine
 10
813.4895308752
 20
-1150.1229869813
 30
0.0
 11
798.4895308752
 21
-1150.1229869813
 31
0.0
  0
ARC
  5
29C
330
21F
100
AcDbEntity
  8
0
  6
CONTINUOUS
 62
     7
100
AcDbCircle
 10
798.4895308752
 20
-1154.1229869813
 30
0.0
 40
4.0
100
AcDbArc
 50
90.0
 51
180.0
  0
TEXT
  5
29D
330
21F
100
AcDbEntity
  8
SCALE
  6
CONTINUOUS
 62
     7
100
AcDbText
 10
750.3428572059
 20
-1118.776957338
 30
0.0
 40
25.0
  1
a
  7
SEACAD_ARIAL_TTF
 11
750.3428572059
 21
-1093.776957338
 31
0.0
100
AcDbText
 73
     3
  0
ARC
  5
29E
330
21F
100
AcDbEntity
  8
0
  6
CONTINUOUS
 62
     7
100
AcDbCircle
 10
798.4895308752
 20
-1104.1229869813
 30
0.0
 40
4.0
100
AcDbArc
 50
90.0
 51
180.0
  0
ARC
  5
29F
330
21F
100
AcDbEntity
  8
0
  6
CONTINUOUS
 62
     7
100
AcDbCircle
 10
798.4895308752
 20
-1116.1229869813
 30
0.0
 40
4.0
100
AcDbArc
 50
180.0
 51
270.0
  0
LINE
  5
2A0
330
21F
100
AcDbEntity
  8
0
  6
CONTINUOUS
 62
     7
100
AcDbLine
 10
794.4895308752
 20
-1116.1229869813
 30
0.0
 11
794.4895308752
 21
-1104.1229869813
 31
0.0
  0
ARC
  5
2A1
330
21F
100
AcDbEntity
  8
0
  6
CONTINUOUS
 62
     7
100
AcDbCircle
 10
813.4895308752
 20
-1154.1229869813
 30
0.0
 40
4.0
100
AcDbArc
 50
0.0
 51
90.0
  0
ARC
  5
2A2
330
21F
100
AcDbEntity
  8
0
  6
CONTINUOUS
 62
     7
100
AcDbCircle
 10
813.4895308752
 20
-1104.1229869813
 30
0.0
 40
4.0
100
AcDbArc
 50
0.0
 51
90.0
  0
ARC
  5
2A3
330
21F
100
AcDbEntity
  8
0
  6
CONTINUOUS
 62
     7
100
AcDbCircle
 10
813.4895308752
 20
-1116.1229869813
 30
0.0
 40
4.0
100
AcDbArc
 50
270.0
 51
0.0
  0
LINE
  5
2A4
330
21F
100
AcDbEntity
  8
0
  6
CONTINUOUS
 62
     7
100
AcDbLine
 10
817.4895308752
 20
-1116.1229869813
 30
0.0
 11
817.4895308752
 21
-1104.1229869813
 31
0.0
  0
LINE
  5
2A5
330
21F
100
AcDbEntity
  8
SCALE
  6
CONTINUOUS
 62
     7
100
AcDbLine
 10
916.635161282
 20
-1138.8058549013
 30
0.0
 11
909.0063384347
 21
-1164.8776159659
 31
0.0
  0
LINE
  5
2A6
330
21F
100
AcDbEntity
  8
SCALE
  6
CONTINUOUS
 62
     7
100
AcDbLine
 10
916.635161282
 20
-1138.8058549013
 30
0.0
 11
924.2639841292
 21
-1164.8776159659
 31
0.0
  0
LINE
  5
2A7
330
21F
100
AcDbEntity
  8
SCALE
  6
CONTINUOUS
 62
     7
100
AcDbLine
 10
916.635161282
 20
-1138.8058549013
 30
0.0
 11
916.635161282
 21
-1186.3058549013
 31
0.0
  0
TEXT
  5
2A8
330
21F
100
AcDbEntity
  8
SCALE
  6
CONTINUOUS
 62
     7
100
AcDbText
 10
931.3727403923
 20
-1179.7714598438
 30
0.0
 40
20.0
  1
A
  7
SEACAD_ARIAL_TTF
 11
931.3727403923
 21
-1159.7714598438
 31
0.0
100
AcDbText
 73
     3
  0
LINE
  5
2A9
330
21F
100
AcDbEntity
  8
SCALE
  6
CONTINUOUS
 62
     7
100
AcDbLine
 10
939.135161282
 20
-1138.8058549013
 30
0.0
 11
894.135161282
 21
-1138.8058549013
 31
0.0
  0
LINE
  5
2AA
330
21F
100
AcDbEntity
  8
SCALE
  6
CONTINUOUS
 62
     7
100
AcDbLine
 10
1567.4936376677
 20
-1323.4001403741
 30
0.0
 11
1707.7272051652
 21
-1323.4001403741
 31
0.0
  0
LINE
  5
2AB
330
21F
100
AcDbEntity
  8
SCALE
  6
CONTINUOUS
 62
     7
100
AcDbLine
 10
1567.4936376677
 20
-1326.4001403741
 30
0.0
 11
1707.7272051652
 21
-1326.4001403741
 31
0.0
  0
CIRCLE
  5
2AC
330
21F
100
AcDbEntity
  8
_TRANSLATION
  6
CONTINUOUS
 62
     7
100
AcDbCircle
 10
627.4407891956
 20
-596.9245587951
 30
0.0
 40
0.0099999999999909
  0
CIRCLE
  5
2AD
330
21F
100
AcDbEntity
  8
_TRANSLATION
  6
CONTINUOUS
 62
     7
100
AcDbCircle
 10
740.3814129426
 20
-710.0046292961
 30
0.0
 40
0.0099999999999909
  0
LINE
  5
2AE
330
21F
100
AcDbEntity
  8
_TRANSLATION
  6
CONTINUOUS
 62
     7
100
AcDbLine
 10
475.776955127
 20
-748.4013658369
 30
0.0
 11
588.717578874
 21
-861.481436338
 31
0.0
  0
LINE
  5
2AF
330
21F
100
AcDbEntity
  8
0-CENTER
  6
CENTER2
 62
     7
100
AcDbLine
 10
1501.1679800027
 20
-999.8615187148
 30
0.0
 11
1781.1679800027
 21
-999.8615187148
 31
0.0
  0
CIRCLE
  5
2B0
330
21F
100
AcDbEntity
  8
_TRANSLATION
  6
CONTINUOUS
 62
     7
100
AcDbCircle
 10
610.3814129426
 20
-714.9523151724
 30
0.0
 40
0.0099999999999909
  0
CIRCLE
  5
2B1
330
21F
100
AcDbEntity
  8
_TRANSLATION
  6
CONTINUOUS
 62
     7
100
AcDbCircle
 10
870.3814129426
 20
-714.9523151724
 30
0.0
 40
0.0099999999999909
  0
LINE
  5
2B2
330
21F
100
AcDbEntity
  8
_TRANSLATION
  6
CONTINUOUS
 62
     7
100
AcDbLine
 10
610.3814129426
 20
-872.370653687
 30
0.0
 11
870.3814129426
 21
-872.370653687
 31
0.0
  0
CIRCLE
  5
2B3
330
21F
100
AcDbEntity
  8
_TRANSLATION
  6
CONTINUOUS
 62
     7
100
AcDbCircle
 10
853.5314129426
 20
-607.5591559473
 30
0.0
 40
0.0099999999999909
  0
CIRCLE
  5
2B4
330
21F
100
AcDbEntity
  8
_TRANSLATION
  6
CONTINUOUS
 62
     7
100
AcDbCircle
 10
627.2314129426
 20
-607.5591559473
 30
0.0
 40
0.0099999999999909
  0
LINE
  5
2B5
330
21F
100
AcDbEntity
  8
_TRANSLATION
  6
CONTINUOUS
 62
     7
100
AcDbLine
 10
853.5314129426
 20
-832.370653687
 30
0.0
 11
627.2314129426
 21
-832.370653687
 31
0.0
  0
CIRCLE
  5
2B6
330
21F
100
AcDbEntity
  8
_TRANSLATION
  6
CONTINUOUS
 62
     7
100
AcDbCircle
 10
640.3814129426
 20
-706.633869455
 30
0.0
 40
0.0099999999999909
  0
CIRCLE
  5
2B7
330
21F
100
AcDbEntity
  8
_TRANSLATION
  6
CONTINUOUS
 62
     7
100
AcDbCircle
 10
840.3814129426
 20
-706.633869455
 30
0.0
 40
0.0099999999999909
  0
LINE
  5
2B8
330
21F
100
AcDbEntity
  8
_TRANSLATION
  6
CONTINUOUS
 62
     7
100
AcDbLine
 10
640.3814129426
 20
-792.370653687
 30
0.0
 11
840.3814129426
 21
-792.370653687
 31
0.0
  0
LINE
  5
2B9
330
21F
100
AcDbEntity
  8
0
  6
CONTINUOUS
 62
     7
100
AcDbLine
 10
1523.1402236253
 20
-869.8615187148
 30
0.0
 11
1759.19573638
 21
-869.8615187148
 31
0.0
  0
CIRCLE
  5
2BA
330
21F
100
AcDbEntity
  8
0
  6
CONTINUOUS
 62
     7
100
AcDbCircle
 10
1641.1679800027
 20
-999.8615187148
 30
0.0
 40
84.0
  0
LINE
  5
2BB
330
21F
100
AcDbEntity
  8
0
  6
CONTINUOUS
 62
     7
100
AcDbLine
 10
1759.19573638
 20
-1129.8615187148
 30
0.0
 11
1523.1402236253
 21
-1129.8615187148
 31
0.0
  0
LINE
  5
2BC
330
21F
100
AcDbEntity
  8
0
  6
CONTINUOUS
 62
     7
100
AcDbLine
 10
768.9895308752
 20
-1019.1229869813
 30
0.0
 11
721.9895308752
 21
-1008.6229869813
 31
0.0
  0
LINE
  5
2BD
330
21F
100
AcDbEntity
  8
0
  6
CONTINUOUS
 62
     7
100
AcDbLine
 10
675.9895308752
 20
-1004.1229869813
 30
0.0
 11
935.9895308752
 21
-1004.1229869813
 31
0.0
  0
LINE
  5
2BE
330
21F
100
AcDbEntity
  8
0
  6
CONTINUOUS
 62
     7
100
AcDbLine
 10
675.9895308752
 20
-1008.6229869813
 30
0.0
 11
935.9895308752
 21
-1008.6229869813
 31
0.0
  0
LINE
  5
2BF
330
21F
100
AcDbEntity
  8
PHANTOM
  6
PHANTOM2
 62
     7
100
AcDbLine
 10
1150.1507186144
 20
-1004.1229869813
 30
0.0
 11
538.1628335297
 21
-1004.1229869813
 31
0.0
  0
LINE
  5
2C0
330
21F
100
AcDbEntity
  8
0
  6
CONTINUOUS
 62
     7
100
AcDbLine
 10
1511.1679800027
 20
-1117.8892750921
 30
0.0
 11
1511.1679800027
 21
-881.8337623375
 31
0.0
  0
LINE
  5
2C1
330
21F
100
AcDbEntity
  8
1-NARROW
  6
CONTINUOUS
 62
     7
100
AcDbLine
 10
656.3099652599
 20
-1004.069653648
 30
0.0
 11
684.084886481
 21
-976.2947324269
 31
0.0
  0
LINE
  5
2C2
330
21F
100
AcDbEntity
  8
1-NARROW
  6
CONTINUOUS
 62
     7
100
AcDbLine
 10
650.3099652599
 20
-1004.069653648
 30
0.0
 11
678.084886481
 21
-976.2947324269
 31
0.0
  0
LINE
  5
2C3
330
21F
100
AcDbEntity
  8
1-NARROW
  6
CONTINUOUS
 62
     7
100
AcDbLine
 10
644.3099652599
 20
-1004.069653648
 30
0.0
 11
672.084886481
 21
-976.2947324269
 31
0.0
  0
LINE
  5
2C4
330
21F
100
AcDbEntity
  8
0
  6
CONTINUOUS
 62
     7
100
AcDbLine
 10
675.9895308752
 20
-1008.6229869813
 30
0.0
 11
675.9895308752
 21
-1004.1229869813
 31
0.0
  0
LINE
  5
2C5
330
21F
100
AcDbEntity
  8
0-CENTER
  6
CENTER2
 62
     7
100
AcDbLine
 10
1548.3390272553
 20
-1107.0325659675
 30
0.0
 11
1533.99693275
 21
-1092.6904714621
 31
0.0
  0
LINE
  5
2C6
330
21F
100
AcDbEntity
  8
0-CENTER
  6
CENTER2
 62
     7
100
AcDbLine
 10
1555.179555101
 20
-1085.8499436165
 30
0.0
 11
1527.9146092932
 21
-1113.1148894243
 31
0.0
  0
LINE
  5
2C7
330
21F
100
AcDbEntity
  8
0
  6
CONTINUOUS
 62
     7
100
AcDbLine
 10
1532.3291452378
 20
-1098.800858543
 30
0.0
 11
1540.1073198309
 21
-1091.02268395
 31
0.0
  0
ARC
  5
2C8
330
21F
100
AcDbEntity
  8
0
  6
CONTINUOUS
 62
     7
100
AcDbCircle
 10
1545.0570672992
 20
-1095.9724314183
 30
0.0
 40
6.999999999999997
100
AcDbArc
 50
315.0
 51
135.0
  0
ARC
  5
2C9
330
21F
100
AcDbEntity
  8
0
  6
CONTINUOUS
 62
     7
100
AcDbCircle
 10
1541.1679800027
 20
-1099.8615187148
 30
0.0
 40
34.99999999999999
100
AcDbArc
 50
211.0027191339
 51
238.9972808661
  0
ARC
  5
2CA
330
21F
100
AcDbEntity
  8
0
  6
CONTINUOUS
 62
     7
100
AcDbCircle
 10
1537.2788927061
 20
-1103.7506060113
 30
0.0
 40
6.999999999999997
100
AcDbArc
 50
135.0
 51
315.0
  0
LINE
  5
2CB
330
21F
100
AcDbEntity
  8
0
  6
CONTINUOUS
 62
     7
100
AcDbLine
 10
1542.2286401744
 20
-1108.7003534796
 30
0.0
 11
1550.0068147675
 21
-1100.9221788866
 31
0.0
  0
LINE
  5
2CC
330
21F
100
AcDbEntity
  8
0-CENTER
  6
CENTER2
 62
     7
100
AcDbLine
 10
1528.0179800027
 20
-1010.496115867
 30
0.0
 11
1528.0179800027
 21
-989.2269215626
 31
0.0
  0
ARC
  5
2CD
330
21F
100
AcDbEntity
  8
0
  6
CONTINUOUS
 62
     7
100
AcDbCircle
 10
1524.5308950128
 20
-999.8615187148
 30
0.0
 40
6.500000000000048
100
AcDbArc
 50
90.0
 51
270.0
  0
LINE
  5
2CE
330
21F
100
AcDbEntity
  8
0
  6
CONTINUOUS
 62
     7
100
AcDbLine
 10
1524.5308950128
 20
-1006.3615187148
 30
0.0
 11
1531.5308950128
 21
-1006.3615187148
 31
0.0
  0
LINE
  5
2CF
330
21F
100
AcDbEntity
  8
0
  6
CONTINUOUS
 62
     7
100
AcDbLine
 10
1524.5308950128
 20
-993.3615187148
 30
0.0
 11
1531.5308950128
 21
-993.3615187148
 31
0.0
  0
ARC
  5
2D0
330
21F
100
AcDbEntity
  8
0
  6
CONTINUOUS
 62
     7
100
AcDbCircle
 10
1531.5308950128
 20
-999.8615187148
 30
0.0
 40
6.499999999999969
100
AcDbArc
 50
270.0
 51
90.0
  0
LINE
  5
2D1
330
21F
100
AcDbEntity
  8
0-CENTER
  6
CENTER2
 62
     7
100
AcDbLine
 10
1555.179555101
 20
-913.8730938131
 30
0.0
 11
1527.9146092932
 21
-886.6081480054
 31
0.0
  0
ARC
  5
2D2
330
21F
100
AcDbEntity
  8
0
  6
CONTINUOUS
 62
     7
100
AcDbCircle
 10
1537.2788927061
 20
-895.9724314183
 30
0.0
 40
7.000000000000001
100
AcDbArc
 50
45.0
 51
225.0
  0
LINE
  5
2D3
330
21F
100
AcDbEntity
  8
0-CENTER
  6
CENTER2
 62
     7
100
AcDbLine
 10
1548.3390272553
 20
-892.6904714621
 30
0.0
 11
1533.99693275
 21
-907.0325659675
 31
0.0
  0
ARC
  5
2D4
330
21F
100
AcDbEntity
  8
0
  6
CONTINUOUS
 62
     7
100
AcDbCircle
 10
1545.0570672992
 20
-903.7506060113
 30
0.0
 40
7.000000000000001
100
AcDbArc
 50
225.0
 51
45.0
  0
LINE
  5
2D5
330
21F
100
AcDbEntity
  8
0
  6
CONTINUOUS
 62
     7
100
AcDbLine
 10
1532.3291452378
 20
-900.9221788866
 30
0.0
 11
1540.1073198309
 21
-908.7003534796
 31
0.0
  0
LINE
  5
2D6
330
21F
100
AcDbEntity
  8
0
  6
CONTINUOUS
 62
     7
100
AcDbLine
 10
1542.2286401744
 20
-891.02268395
 30
0.0
 11
1550.0068147675
 21
-898.800858543
 31
0.0
  0
ARC
  5
2D7
330
21F
100
AcDbEntity
  8
0
  6
CONTINUOUS
 62
     7
100
AcDbCircle
 10
1541.1679800027
 20
-899.8615187148
 30
0.0
 40
34.99999999999999
100
AcDbArc
 50
121.0027191339
 51
148.9972808661
  0
LINE
  5
2D8
330
21F
100
AcDbEntity
  8
0-CENTER
  6
CENTER2
 62
     7
100
AcDbLine
 10
1641.1679800027
 20
-859.8615187148
 30
0.0
 11
1641.1679800027
 21
-1139.8615187148
 31
0.0
  0
CIRCLE
  5
2D9
330
21F
100
AcDbEntity
  8
0
  6
CONTINUOUS
 62
     7
100
AcDbCircle
 10
1641.1679800027
 20
-999.8615187148
 30
0.0
 40
37.0
  0
LINE
  5
2DA
330
21F
100
AcDbEntity
  8
0
  6
CONTINUOUS
 62
     7
100
AcDbLine
 10
1771.1679800027
 20
-881.8337623375
 30
0.0
 11
1771.1679800027
 21
-1117.8892750921
 31
0.0
  0
CIRCLE
  5
2DB
330
21F
100
AcDbEntity
  8
_TRANSLATION
  6
CONTINUOUS
 62
     7
100
AcDbCircle
 10
871.9086814923
 20
-1004.1229869813
 30
0.0
 40
0.0099999999999909
  0
CIRCLE
  5
2DC
330
21F
100
AcDbEntity
  8
_TRANSLATION
  6
CONTINUOUS
 62
     7
100
AcDbCircle
 10
871.9086814923
 20
-1008.6229869813
 30
0.0
 40
0.0099999999999909
  0
LINE
  5
2DD
330
21F
100
AcDbEntity
  8
_TRANSLATION
  6
CONTINUOUS
 62
     7
100
AcDbLine
 10
903.1610135132
 20
-1004.1229869813
 30
0.0
 11
903.1610135132
 21
-1008.6229869813
 31
0.0
  0
LINE
  5
2DE
330
21F
100
AcDbEntity
  8
1-NARROW
  6
CONTINUOUS
 62
     7
100
AcDbLine
 10
904.0187943408
 20
-1004.069653648
 30
0.0
 11
931.7937155618
 21
-976.2947324269
 31
0.0
  0
LINE
  5
2DF
330
21F
100
AcDbEntity
  8
1-NARROW
  6
CONTINUOUS
 62
     7
100
AcDbLine
 10
910.0187943408
 20
-1004.069653648
 30
0.0
 11
937.7937155618
 21
-976.2947324269
 31
0.0
  0
LINE
  5
2E0
330
21F
100
AcDbEntity
  8
1-NARROW
  6
CONTINUOUS
 62
     7
100
AcDbLine
 10
916.0187943408
 20
-1004.069653648
 30
0.0
 11
943.7937155618
 21
-976.2947324269
 31
0.0
  0
LINE
  5
2E1
330
21F
100
AcDbEntity
  8
0
  6
CONTINUOUS
 62
     7
100
AcDbLine
 10
842.9895308752
 20
-1019.1229869813
 30
0.0
 11
889.9895308752
 21
-1008.6229869813
 31
0.0
  0
ARC
  5
2E2
330
21F
100
AcDbEntity
  8
0
  6
CONTINUOUS
 62
     7
100
AcDbCircle
 10
805.9895308752
 20
-1041.1229869813
 30
0.0
 40
11.0
100
AcDbArc
 50
0.0
 51
180.0
  0
ARC
  5
2E3
330
21F
100
AcDbEntity
  8
0
  6
CONTINUOUS
 62
     7
100
AcDbCircle
 10
805.9895308752
 20
-1069.1229869813
 30
0.0
 40
11.0
100
AcDbArc
 50
180.0
 51
0.0
  0
LINE
  5
2E4
330
21F
100
AcDbEntity
  8
0
  6
CONTINUOUS
 62
     7
100
AcDbLine
 10
794.9895308752
 20
-1041.1229869813
 30
0.0
 11
794.9895308752
 21
-1069.1229869813
 31
0.0
  0
LINE
  5
2E5
330
21F
100
AcDbEntity
  8
0
  6
CONTINUOUS
 62
     7
100
AcDbLine
 10
816.9895308752
 20
-1041.1229869813
 30
0.0
 11
816.9895308752
 21
-1069.1229869813
 31
0.0
  0
LINE
  5
2E6
330
21F
100
AcDbEntity
  8
0
  6
CONTINUOUS
 62
     7
100
AcDbLine
 10
768.9895308752
 20
-1019.1229869813
 30
0.0
 11
842.9895308752
 21
-1019.1229869813
 31
0.0
  0
LINE
  5
2E7
330
21F
100
AcDbEntity
  8
0
  6
CONTINUOUS
 62
     7
100
AcDbLine
 10
935.9895308752
 20
-1004.1229869813
 30
0.0
 11
935.9895308752
 21
-1008.6229869813
 31
0.0
  0
TEXT
  5
2E8
330
21F
100
AcDbEntity
  8
SCALE
  6
CONTINUOUS
 62
     7
100
AcDbText
 10
1571.0068770706
 20
-1324.596043289
 30
0.0
 40
20.0
  1
断面 Ａ－Ａ
  7
SEACAD_ARIAL_TTF
 11
1571.0068770706
 21
-1304.596043289
 31
0.0
100
AcDbText
 73
     3
  0
LINE
  5
2E9
330
21F
100
AcDbEntity
  8
PHANTOM
  6
PHANTOM2
 62
     7
100
AcDbLine
 10
1083.5468259641
 20
-1004.069653648
 30
0.0
 11
1111.3217471851
 21
-976.2947324269
 31
0.0
  0
LINE
  5
2EA
330
21F
100
AcDbEntity
  8
PHANTOM
  6
PHANTOM2
 62
     7
100
AcDbLine
 10
1077.5468259641
 20
-1004.069653648
 30
0.0
 11
1105.3217471851
 21
-976.2947324269
 31
0.0
  0
LINE
  5
2EB
330
21F
100
AcDbEntity
  8
PHANTOM
  6
PHANTOM2
 62
     7
100
AcDbLine
 10
1071.5468259641
 20
-1004.069653648
 30
0.0
 11
1099.3217471851
 21
-976.2947324269
 31
0.0
  0
TEXT
  5
2EC
330
21F
100
AcDbEntity
  8
SCALE
  6
CONTINUOUS
 62
     7
100
AcDbText
 10
1172.6402853753
 20
-1051.4541779257
 30
0.0
 40
15.0
  1
スラブ面
  7
SEACAD_ARIAL_TTF
 11
1172.6402853753
 21
-1036.4541779257
 31
0.0
100
AcDbText
 73
     3
  0
INSERT
  5
2ED
330
21F
100
AcDbEntity
  8
SCALE
 62
     7
100
AcDbBlockReference
  2
SEANNOT_GROUP2
 10
64.0808493829
 20
0.0
 30
0.0
  0
INSERT
  5
2EE
330
21F
100
AcDbEntity
  8
SCALE
 62
     7
100
AcDbBlockReference
  2
SEANNOT_GROUP3
 10
-105.8530466703
 20
-17.8877785319
 30
0.0
  0
ARC
  5
2EF
330
21F
100
AcDbEntity
  8
0
  6
CONTINUOUS
 62
     7
100
AcDbCircle
 10
1641.1679800027
 20
-1109.4986037047
 30
0.0
 40
6.500000000000048
100
AcDbArc
 50
0.0
 51
180.0
  0
ARC
  5
2F0
330
21F
100
AcDbEntity
  8
0
  6
CONTINUOUS
 62
     7
100
AcDbCircle
 10
1641.1679800027
 20
-1116.4986037047
 30
0.0
 40
6.499999999999969
100
AcDbArc
 50
180.0
 51
0.0
  0
LINE
  5
2F1
330
21F
100
AcDbEntity
  8
0
  6
CONTINUOUS
 62
     7
100
AcDbLine
 10
1634.6679800027
 20
-1109.4986037047
 30
0.0
 11
1634.6679800027
 21
-1116.4986037047
 31
0.0
  0
LINE
  5
2F2
330
21F
100
AcDbEntity
  8
0
  6
CONTINUOUS
 62
     7
100
AcDbLine
 10
1647.6679800027
 20
-1109.4986037047
 30
0.0
 11
1647.6679800027
 21
-1116.4986037047
 31
0.0
  0
LINE
  5
2F3
330
21F
100
AcDbEntity
  8
0-CENTER
  6
CENTER2
 62
     7
100
AcDbLine
 10
1733.99693275
 20
-1107.0325659675
 30
0.0
 11
1748.3390272553
 21
-1092.6904714621
 31
0.0
  0
LINE
  5
2F4
330
21F
100
AcDbEntity
  8
0-CENTER
  6
CENTER2
 62
     7
100
AcDbLine
 10
1727.1564049043
 20
-1085.8499436165
 30
0.0
 11
1754.4213507121
 21
-1113.1148894243
 31
0.0
  0
ARC
  5
2F5
330
21F
100
AcDbEntity
  8
0
  6
CONTINUOUS
 62
     7
100
AcDbCircle
 10
1737.2788927061
 20
-1095.9724314183
 30
0.0
 40
6.999999999999997
100
AcDbArc
 50
45.0
 51
225.0
  0
LINE
  5
2F6
330
21F
100
AcDbEntity
  8
0
  6
CONTINUOUS
 62
     7
100
AcDbLine
 10
1742.2286401744
 20
-1091.02268395
 30
0.0
 11
1750.0068147675
 21
-1098.800858543
 31
0.0
  0
ARC
  5
2F7
330
21F
100
AcDbEntity
  8
0
  6
CONTINUOUS
 62
     7
100
AcDbCircle
 10
1741.1679800027
 20
-1099.8615187148
 30
0.0
 40
35.0
100
AcDbArc
 50
301.0027191339
 51
328.9972808661
  0
LINE
  5
2F8
330
21F
100
AcDbEntity
  8
0
  6
CONTINUOUS
 62
     7
100
AcDbLine
 10
1732.3291452378
 20
-1100.9221788866
 30
0.0
 11
1740.1073198309
 21
-1108.7003534796
 31
0.0
  0
ARC
  5
2F9
330
21F
100
AcDbEntity
  8
0
  6
CONTINUOUS
 62
     7
100
AcDbCircle
 10
1745.0570672992
 20
-1103.7506060113
 30
0.0
 40
6.999999999999997
100
AcDbArc
 50
225.0
 51
45.0
  0
INSERT
  5
2FA
330
21F
100
AcDbEntity
  8
SCALE
 62
     7
100
AcDbBlockReference
  2
SEANNOT_GROUP4
 10
-105.8530466703
 20
-17.8877785319
 30
0.0
  0
CIRCLE
  5
2FB
330
21F
100
AcDbEntity
  8
0
  6
CONTINUOUS
 62
     7
100
AcDbCircle
 10
1641.1679800027
 20
-999.8615187148
 30
0.0
 40
24.75
  0
CIRCLE
  5
2FC
330
21F
100
AcDbEntity
  8
0
  6
CONTINUOUS
 62
     7
100
AcDbCircle
 10
1641.1679800027
 20
-999.8615187148
 30
0.0
 40
27.00774999999999
  0
LINE
  5
2FD
330
21F
100
AcDbEntity
  8
0-HIDDEN
  6
HIDDEN2
 62
     7
100
AcDbLine
 10
1629.6679800027
 20
-1021.7775516588
 30
0.0
 11
1629.6679800027
 21
-1024.2985512692
 31
0.0
  0
LINE
  5
2FE
330
21F
100
AcDbEntity
  8
0-HIDDEN
  6
HIDDEN2
 62
     7
100
AcDbLine
 10
1652.6679800027
 20
-1021.7775516588
 30
0.0
 11
1652.6679800027
 21
-1024.2985512692
 31
0.0
  0
LINE
  5
2FF
330
21F
100
AcDbEntity
  8
0-HIDDEN
  6
HIDDEN2
 62
     7
100
AcDbLine
 10
1634.4179800027
 20
-976.0497569152
 30
0.0
 11
1634.4179800027
 21
-973.7108770389
 31
0.0
  0
LINE
  5
300
330
21F
100
AcDbEntity
  8
0-HIDDEN
  6
HIDDEN2
 62
     7
100
AcDbLine
 10
1647.9179800027
 20
-976.0497569152
 30
0.0
 11
1647.9179800027
 21
-973.7108770389
 31
0.0
  0
LINE
  5
301
330
21F
100
AcDbEntity
  8
0-CENTER
  6
CENTER2
 62
     7
100
AcDbLine
 10
1754.3179800027
 20
-1010.496115867
 30
0.0
 11
1754.3179800027
 21
-989.2269215626
 31
0.0
  0
LINE
  5
302
330
21F
100
AcDbEntity
  8
0
  6
CONTINUOUS
 62
     7
100
AcDbLine
 10
1750.8050649925
 20
-993.3615187148
 30
0.0
 11
1757.8050649925
 21
-993.3615187148
 31
0.0
  0
LINE
  5
303
330
21F
100
AcDbEntity
  8
0
  6
CONTINUOUS
 62
     7
100
AcDbLine
 10
1750.8050649925
 20
-1006.3615187148
 30
0.0
 11
1757.8050649925
 21
-1006.3615187148
 31
0.0
  0
ARC
  5
304
330
21F
100
AcDbEntity
  8
0
  6
CONTINUOUS
 62
     7
100
AcDbCircle
 10
1757.8050649925
 20
-999.8615187148
 30
0.0
 40
6.499999999999969
100
AcDbArc
 50
270.0
 51
90.0
  0
ARC
  5
305
330
21F
100
AcDbEntity
  8
0
  6
CONTINUOUS
 62
     7
100
AcDbCircle
 10
1750.8050649925
 20
-999.8615187148
 30
0.0
 40
6.500000000000048
100
AcDbArc
 50
90.0
 51
270.0
  0
ARC
  5
306
330
21F
100
AcDbEntity
  8
0
  6
CONTINUOUS
 62
     7
100
AcDbCircle
 10
1641.1679800027
 20
-890.224433725
 30
0.0
 40
6.499999999999969
100
AcDbArc
 50
180.0
 51
0.0
  0
ARC
  5
307
330
21F
100
AcDbEntity
  8
0
  6
CONTINUOUS
 62
     7
100
AcDbCircle
 10
1641.1679800027
 20
-883.224433725
 30
0.0
 40
6.500000000000048
100
AcDbArc
 50
0.0
 51
180.0
  0
LINE
  5
308
330
21F
100
AcDbEntity
  8
0
  6
CONTINUOUS
 62
     7
100
AcDbLine
 10
1634.6679800027
 20
-883.224433725
 30
0.0
 11
1634.6679800027
 21
-890.224433725
 31
0.0
  0
LINE
  5
309
330
21F
100
AcDbEntity
  8
0
  6
CONTINUOUS
 62
     7
100
AcDbLine
 10
1647.6679800027
 20
-883.224433725
 30
0.0
 11
1647.6679800027
 21
-890.224433725
 31
0.0
  0
ARC
  5
30A
330
21F
100
AcDbEntity
  8
0
  6
CONTINUOUS
 62
     7
100
AcDbCircle
 10
1741.1679800027
 20
-899.8615187148
 30
0.0
 40
35.0
100
AcDbArc
 50
31.0027191339
 51
58.9972808661
  0
LINE
  5
30B
330
21F
100
AcDbEntity
  8
0-CENTER
  6
CENTER2
 62
     7
100
AcDbLine
 10
1727.1564049043
 20
-913.8730938131
 30
0.0
 11
1754.4213507121
 21
-886.6081480054
 31
0.0
  0
ARC
  5
30C
330
21F
100
AcDbEntity
  8
0
  6
CONTINUOUS
 62
     7
100
AcDbCircle
 10
1745.0570672992
 20
-895.9724314183
 30
0.0
 40
7.000000000000001
100
AcDbArc
 50
315.0
 51
135.0
  0
LINE
  5
30D
330
21F
100
AcDbEntity
  8
0-CENTER
  6
CENTER2
 62
     7
100
AcDbLine
 10
1733.99693275
 20
-892.6904714621
 30
0.0
 11
1748.3390272553
 21
-907.0325659675
 31
0.0
  0
LINE
  5
30E
330
21F
100
AcDbEntity
  8
0
  6
CONTINUOUS
 62
     7
100
AcDbLine
 10
1732.3291452378
 20
-898.800858543
 30
0.0
 11
1740.1073198309
 21
-891.02268395
 31
0.0
  0
ARC
  5
30F
330
21F
100
AcDbEntity
  8
0
  6
CONTINUOUS
 62
     7
100
AcDbCircle
 10
1737.2788927061
 20
-903.7506060113
 30
0.0
 40
7.000000000000001
100
AcDbArc
 50
135.0
 51
315.0
  0
LINE
  5
310
330
21F
100
AcDbEntity
  8
0
  6
CONTINUOUS
 62
     7
100
AcDbLine
 10
1742.2286401744
 20
-908.7003534796
 30
0.0
 11
1750.0068147675
 21
-900.9221788866
 31
0.0
  0
TEXT
  5
311
330
21F
100
AcDbEntity
  8
SCALE
  6
CONTINUOUS
 62
     7
100
AcDbText
 10
1714.7788917762
 20
-1556.4333866212
 30
0.0
 40
15.0
  1
450
  7
SEACAD_ARIAL_TTF
 11
1714.7788917762
 21
-1541.4333866212
 31
0.0
100
AcDbText
 73
     3
  0
TEXT
  5
312
330
21F
100
AcDbEntity
  8
SCALE
  6
CONTINUOUS
 62
     7
100
AcDbText
 10
1714.7788917762
 20
-1591.4333866212
 30
0.0
 40
15.0
  1
600
  7
SEACAD_ARIAL_TTF
 11
1714.7788917762
 21
-1576.4333866212
 31
0.0
100
AcDbText
 73
     3
  0
TEXT
  5
313
330
21F
100
AcDbEntity
  8
SCALE
  6
CONTINUOUS
 62
     7
100
AcDbText
 10
1704.960709958
 20
-1766.4333866212
 30
0.0
 40
15.0
  1
1350
  7
SEACAD_ARIAL_TTF
 11
1704.960709958
 21
-1751.4333866212
 31
0.0
100
AcDbText
 73
     3
  0
TEXT
  5
314
330
21F
100
AcDbEntity
  8
SCALE
  6
CONTINUOUS
 62
     7
100
AcDbText
 10
1704.960709958
 20
-1731.4333866212
 30
0.0
 40
15.0
  1
1200
  7
SEACAD_ARIAL_TTF
 11
1704.960709958
 21
-1716.4333866212
 31
0.0
100
AcDbText
 73
     3
  0
TEXT
  5
315
330
21F
100
AcDbEntity
  8
SCALE
  6
CONTINUOUS
 62
     7
100
AcDbText
 10
1714.7788917762
 20
-1661.4333866212
 30
0.0
 40
15.0
  1
900
  7
SEACAD_ARIAL_TTF
 11
1714.7788917762
 21
-1646.4333866212
 31
0.0
100
AcDbText
 73
     3
  0
TEXT
  5
316
330
21F
100
AcDbEntity
  8
SCALE
  6
CONTINUOUS
 62
     7
100
AcDbText
 10
1704.960709958
 20
-1696.4333866212
 30
0.0
 40
15.0
  1
1050
  7
SEACAD_ARIAL_TTF
 11
1704.960709958
 21
-1681.4333866212
 31
0.0
100
AcDbText
 73
     3
  0
TEXT
  5
317
330
21F
100
AcDbEntity
  8
SCALE
  6
CONTINUOUS
 62
     7
100
AcDbText
 10
1714.7788917762
 20
-1626.4333866212
 30
0.0
 40
15.0
  1
750
  7
SEACAD_ARIAL_TTF
 11
1714.7788917762
 21
-1611.4333866212
 31
0.0
100
AcDbText
 73
     3
  0
TEXT
  5
318
330
21F
100
AcDbEntity
  8
SCALE
  6
CONTINUOUS
 62
     7
100
AcDbText
 10
1704.960709958
 20
-1801.4333866212
 30
0.0
 40
15.0
  1
1500
  7
SEACAD_ARIAL_TTF
 11
1704.960709958
 21
-1786.4333866212
 31
0.0
100
AcDbText
 73
     3
  0
LINE
  5
319
330
21F
100
AcDbEntity
  8
SCALE
  6
CONTINUOUS
 62
     7
100
AcDbLine
 10
1306.0334743835
 20
-1807.8281454474
 30
0.0
 11
2075.6198297093
 21
-1807.8281454474
 31
0.0
  0
LINE
  5
31A
330
21F
100
AcDbEntity
  8
SCALE
  6
CONTINUOUS
 62
     7
100
AcDbLine
 10
1306.0334743835
 20
-1667.8281454474
 30
0.0
 11
2075.6198297093
 21
-1667.8281454474
 31
0.0
  0
LINE
  5
31B
330
21F
100
AcDbEntity
  8
SCALE
  6
CONTINUOUS
 62
     7
100
AcDbLine
 10
1306.0334743835
 20
-1702.8281454474
 30
0.0
 11
2075.6198297093
 21
-1702.8281454474
 31
0.0
  0
LINE
  5
31C
330
21F
100
AcDbEntity
  8
SCALE
  6
CONTINUOUS
 62
     7
100
AcDbLine
 10
1306.0334743835
 20
-1737.8281454474
 30
0.0
 11
2075.6198297093
 21
-1737.8281454474
 31
0.0
  0
LINE
  5
31D
330
21F
100
AcDbEntity
  8
SCALE
  6
CONTINUOUS
 62
     7
100
AcDbLine
 10
1306.0334743835
 20
-1772.8281454474
 30
0.0
 11
2075.6198297093
 21
-1772.8281454474
 31
0.0
  0
LINE
  5
31E
330
21F
100
AcDbEntity
  8
SCALE
  6
CONTINUOUS
 62
     7
100
AcDbLine
 10
1306.0334743835
 20
-1457.8281454474
 30
0.0
 11
2075.6198297093
 21
-1457.8281454474
 31
0.0
  0
LINE
  5
31F
330
21F
100
AcDbEntity
  8
SCALE
  6
CONTINUOUS
 62
     7
100
AcDbLine
 10
1575.6198297093
 20
-1492.8281454474
 30
0.0
 11
1975.6198297093
 21
-1492.8281454474
 31
0.0
  0
LINE
  5
320
330
21F
100
AcDbEntity
  8
SCALE
  6
CONTINUOUS
 62
     7
100
AcDbLine
 10
1306.0334743835
 20
-1527.8281454474
 30
0.0
 11
2075.6198297093
 21
-1527.8281454474
 31
0.0
  0
LINE
  5
321
330
21F
100
AcDbEntity
  8
SCALE
  6
CONTINUOUS
 62
     7
100
AcDbLine
 10
1306.0334743835
 20
-1562.8281454474
 30
0.0
 11
2075.6198297093
 21
-1562.8281454474
 31
0.0
  0
LINE
  5
322
330
21F
100
AcDbEntity
  8
SCALE
  6
CONTINUOUS
 62
     7
100
AcDbLine
 10
1306.0334743835
 20
-1597.8281454474
 30
0.0
 11
2075.6198297093
 21
-1597.8281454474
 31
0.0
  0
LINE
  5
323
330
21F
100
AcDbEntity
  8
SCALE
  6
CONTINUOUS
 62
     7
100
AcDbLine
 10
1306.0334743835
 20
-1632.8281454474
 30
0.0
 11
2075.6198297093
 21
-1632.8281454474
 31
0.0
  0
TEXT
  5
324
330
21F
100
AcDbEntity
  8
SCALE
  6
CONTINUOUS
 62
     7
100
AcDbText
 10
1615.5838645948
 20
-1591.4333866212
 30
0.0
 40
15.0
  1
550
  7
SEACAD_ARIAL_TTF
 11
1615.5838645948
 21
-1576.4333866212
 31
0.0
100
AcDbText
 73
     3
  0
LINE
  5
325
330
21F
100
AcDbEntity
  8
SCALE
  6
CONTINUOUS
 62
     7
100
AcDbLine
 10
1675.6198297093
 20
-1492.8281454474
 30
0.0
 11
1675.6198297093
 21
-1807.8281454474
 31
0.0
  0
LINE
  5
326
330
21F
100
AcDbEntity
  8
SCALE
  6
CONTINUOUS
 62
     7
100
AcDbLine
 10
1575.6198297093
 20
-1457.8281454474
 30
0.0
 11
1575.6198297093
 21
-1807.8281454474
 31
0.0
  0
LINE
  5
327
330
21F
100
AcDbEntity
  8
SCALE
  6
CONTINUOUS
 62
     7
100
AcDbLine
 10
1306.0334743835
 20
-1807.8281454474
 30
0.0
 11
1306.0334743835
 21
-1457.8281454474
 31
0.0
  0
TEXT
  5
328
330
21F
100
AcDbEntity
  8
SCALE
  6
CONTINUOUS
 62
     7
100
AcDbText
 10
1605.7656827766
 20
-1766.4333866212
 30
0.0
 40
15.0
  1
1300
  7
SEACAD_ARIAL_TTF
 11
1605.7656827766
 21
-1751.4333866212
 31
0.0
100
AcDbText
 73
     3
  0
TEXT
  5
329
330
21F
100
AcDbEntity
  8
SCALE
  6
CONTINUOUS
 62
     7
100
AcDbText
 10
1605.7656827766
 20
-1801.4333866212
 30
0.0
 40
15.0
  1
1450
  7
SEACAD_ARIAL_TTF
 11
1605.7656827766
 21
-1786.4333866212
 31
0.0
100
AcDbText
 73
     3
  0
TEXT
  5
32A
330
21F
100
AcDbEntity
  8
SCALE
  6
CONTINUOUS
 62
     7
100
AcDbText
 10
1605.7656827766
 20
-1731.4333866212
 30
0.0
 40
15.0
  1
1150
  7
SEACAD_ARIAL_TTF
 11
1605.7656827766
 21
-1716.4333866212
 31
0.0
100
AcDbText
 73
     3
  0
TEXT
  5
32B
330
21F
100
AcDbEntity
  8
SCALE
  6
CONTINUOUS
 62
     7
100
AcDbText
 10
1605.7656827766
 20
-1696.4333866212
 30
0.0
 40
15.0
  1
1000
  7
SEACAD_ARIAL_TTF
 11
1605.7656827766
 21
-1681.4333866212
 31
0.0
100
AcDbText
 73
     3
  0
TEXT
  5
32C
330
21F
100
AcDbEntity
  8
SCALE
  6
CONTINUOUS
 62
     7
100
AcDbText
 10
1615.5838645948
 20
-1661.4333866212
 30
0.0
 40
15.0
  1
850
  7
SEACAD_ARIAL_TTF
 11
1615.5838645948
 21
-1646.4333866212
 31
0.0
100
AcDbText
 73
     3
  0
TEXT
  5
32D
330
21F
100
AcDbEntity
  8
SCALE
  6
CONTINUOUS
 62
     7
100
AcDbText
 10
1615.5838645948
 20
-1626.4333866212
 30
0.0
 40
15.0
  1
700
  7
SEACAD_ARIAL_TTF
 11
1615.5838645948
 21
-1611.4333866212
 31
0.0
100
AcDbText
 73
     3
  0
TEXT
  5
32E
330
21F
100
AcDbEntity
  8
SCALE
  6
CONTINUOUS
 62
     7
100
AcDbText
 10
1321.0961600986
 20
-1556.4333866212
 30
0.0
 40
15.0
  1
IPSiO PJ パイプ タイプ1
  7
SEACAD_ARIAL_TTF
 11
1321.0961600986
 21
-1541.4333866212
 31
0.0
100
AcDbText
 73
     3
  0
TEXT
  5
32F
330
21F
100
AcDbEntity
  8
SCALE
  6
CONTINUOUS
 62
     7
100
AcDbText
 10
1363.4351322725
 20
-1505.1085369383
 30
0.0
 40
15.0
  1
商　品　名
  7
SEACAD_ARIAL_TTF
 11
1363.4351322725
 21
-1490.1085369383
 31
0.0
100
AcDbText
 73
     3
  0
LINE
  5
330
330
21F
100
AcDbEntity
  8
SCALE
  6
CONTINUOUS
 62
     7
100
AcDbLine
 10
1648.1447816654
 20
-1545.3281454474
 30
0.0
 11
1608.1447816654
 21
-1545.3281454474
 31
0.0
  0
TEXT
  5
331
330
21F
100
AcDbEntity
  8
SCALE
  6
CONTINUOUS
 62
     7
100
AcDbText
 10
1617.2831403862
 20
-1521.4333866212
 30
0.0
 40
15.0
  1
a
  7
SEACAD_ARIAL_TTF
 11
1617.2831403862
 21
-1506.4333866212
 31
0.0
100
AcDbText
 73
     3
  0
TEXT
  5
332
330
21F
100
AcDbEntity
  8
SCALE
  6
CONTINUOUS
 62
     7
100
AcDbText
 10
1914.7788917762
 20
-1591.4333866212
 30
0.0
 40
15.0
  1
700
  7
SEACAD_ARIAL_TTF
 11
1914.7788917762
 21
-1576.4333866212
 31
0.0
100
AcDbText
 73
     3
  0
TEXT
  5
333
330
21F
100
AcDbEntity
  8
SCALE
  6
CONTINUOUS
 62
     7
100
AcDbText
 10
1814.7788917762
 20
-1591.4333866212
 30
0.0
 40
15.0
  1
650
  7
SEACAD_ARIAL_TTF
 11
1814.7788917762
 21
-1576.4333866212
 31
0.0
100
AcDbText
 73
     3
  0
LINE
  5
334
330
21F
100
AcDbEntity
  8
SCALE
  6
CONTINUOUS
 62
     7
100
AcDbLine
 10
1775.6198297093
 20
-1492.8281454474
 30
0.0
 11
1775.6198297093
 21
-1807.8281454474
 31
0.0
  0
LINE
  5
335
330
21F
100
AcDbEntity
  8
SCALE
  6
CONTINUOUS
 62
     7
100
AcDbLine
 10
1875.6198297093
 20
-1492.8281454474
 30
0.0
 11
1875.6198297093
 21
-1807.8281454474
 31
0.0
  0
LINE
  5
336
330
21F
100
AcDbEntity
  8
SCALE
  6
CONTINUOUS
 62
     7
100
AcDbLine
 10
1975.6198297093
 20
-1457.8281454474
 30
0.0
 11
1975.6198297093
 21
-1807.8281454474
 31
0.0
  0
TEXT
  5
337
330
21F
100
AcDbEntity
  8
SCALE
  6
CONTINUOUS
 62
     7
100
AcDbText
 10
1804.960709958
 20
-1766.4333866212
 30
0.0
 40
15.0
  1
1400
  7
SEACAD_ARIAL_TTF
 11
1804.960709958
 21
-1751.4333866212
 31
0.0
100
AcDbText
 73
     3
  0
TEXT
  5
338
330
21F
100
AcDbEntity
  8
SCALE
  6
CONTINUOUS
 62
     7
100
AcDbText
 10
1804.960709958
 20
-1731.4333866212
 30
0.0
 40
15.0
  1
1250
  7
SEACAD_ARIAL_TTF
 11
1804.960709958
 21
-1716.4333866212
 31
0.0
100
AcDbText
 73
     3
  0
TEXT
  5
339
330
21F
100
AcDbEntity
  8
SCALE
  6
CONTINUOUS
 62
     7
100
AcDbText
 10
1804.960709958
 20
-1801.4333866212
 30
0.0
 40
15.0
  1
1550
  7
SEACAD_ARIAL_TTF
 11
1804.960709958
 21
-1786.4333866212
 31
0.0
100
AcDbText
 73
     3
  0
TEXT
  5
33A
330
21F
100
AcDbEntity
  8
SCALE
  6
CONTINUOUS
 62
     7
100
AcDbText
 10
1904.960709958
 20
-1766.4333866212
 30
0.0
 40
15.0
  1
1450
  7
SEACAD_ARIAL_TTF
 11
1904.960709958
 21
-1751.4333866212
 31
0.0
100
AcDbText
 73
     3
  0
TEXT
  5
33B
330
21F
100
AcDbEntity
  8
SCALE
  6
CONTINUOUS
 62
     7
100
AcDbText
 10
1904.960709958
 20
-1801.4333866212
 30
0.0
 40
15.0
  1
1600
  7
SEACAD_ARIAL_TTF
 11
1904.960709958
 21
-1786.4333866212
 31
0.0
100
AcDbText
 73
     3
  0
TEXT
  5
33C
330
21F
100
AcDbEntity
  8
SCALE
  6
CONTINUOUS
 62
     7
100
AcDbText
 10
1904.960709958
 20
-1731.4333866212
 30
0.0
 40
15.0
  1
1300
  7
SEACAD_ARIAL_TTF
 11
1904.960709958
 21
-1716.4333866212
 31
0.0
100
AcDbText
 73
     3
  0
TEXT
  5
33D
330
21F
100
AcDbEntity
  8
SCALE
  6
CONTINUOUS
 62
     7
100
AcDbText
 10
1814.7788917762
 20
-1661.4333866212
 30
0.0
 40
15.0
  1
950
  7
SEACAD_ARIAL_TTF
 11
1814.7788917762
 21
-1646.4333866212
 31
0.0
100
AcDbText
 73
     3
  0
TEXT
  5
33E
330
21F
100
AcDbEntity
  8
SCALE
  6
CONTINUOUS
 62
     7
100
AcDbText
 10
1804.960709958
 20
-1696.4333866212
 30
0.0
 40
15.0
  1
1100
  7
SEACAD_ARIAL_TTF
 11
1804.960709958
 21
-1681.4333866212
 31
0.0
100
AcDbText
 73
     3
  0
TEXT
  5
33F
330
21F
100
AcDbEntity
  8
SCALE
  6
CONTINUOUS
 62
     7
100
AcDbText
 10
1814.7788917762
 20
-1626.4333866212
 30
0.0
 40
15.0
  1
800
  7
SEACAD_ARIAL_TTF
 11
1814.7788917762
 21
-1611.4333866212
 31
0.0
100
AcDbText
 73
     3
  0
TEXT
  5
340
330
21F
100
AcDbEntity
  8
SCALE
  6
CONTINUOUS
 62
     7
100
AcDbText
 10
1904.960709958
 20
-1661.4333866212
 30
0.0
 40
15.0
  1
1000
  7
SEACAD_ARIAL_TTF
 11
1904.960709958
 21
-1646.4333866212
 31
0.0
100
AcDbText
 73
     3
  0
TEXT
  5
341
330
21F
100
AcDbEntity
  8
SCALE
  6
CONTINUOUS
 62
     7
100
AcDbText
 10
1904.960709958
 20
-1696.4333866212
 30
0.0
 40
15.0
  1
1150
  7
SEACAD_ARIAL_TTF
 11
1904.960709958
 21
-1681.4333866212
 31
0.0
100
AcDbText
 73
     3
  0
TEXT
  5
342
330
21F
100
AcDbEntity
  8
SCALE
  6
CONTINUOUS
 62
     7
100
AcDbText
 10
1914.7788917762
 20
-1626.4333866212
 30
0.0
 40
15.0
  1
850
  7
SEACAD_ARIAL_TTF
 11
1914.7788917762
 21
-1611.4333866212
 31
0.0
100
AcDbText
 73
     3
  0
TEXT
  5
343
330
21F
100
AcDbEntity
  8
SCALE
  6
CONTINUOUS
 62
     7
100
AcDbText
 10
1814.7788917762
 20
-1556.4333866212
 30
0.0
 40
15.0
  1
500
  7
SEACAD_ARIAL_TTF
 11
1814.7788917762
 21
-1541.4333866212
 31
0.0
100
AcDbText
 73
     3
  0
TEXT
  5
344
330
21F
100
AcDbEntity
  8
SCALE
  6
CONTINUOUS
 62
     7
100
AcDbText
 10
1715.2021986274
 20
-1486.5200461564
 30
0.0
 40
15.0
  1
組合せ寸法  L
  7
SEACAD_ARIAL_TTF
 11
1715.2021986274
 21
-1471.5200461564
 31
0.0
100
AcDbText
 73
     3
  0
TEXT
  5
345
330
21F
100
AcDbEntity
  8
SCALE
  6
CONTINUOUS
 62
     7
100
AcDbText
 10
1717.2831403862
 20
-1521.4333866212
 30
0.0
 40
15.0
  1
b
  7
SEACAD_ARIAL_TTF
 11
1717.2831403862
 21
-1506.4333866212
 31
0.0
100
AcDbText
 73
     3
  0
TEXT
  5
346
330
21F
100
AcDbEntity
  8
SCALE
  6
CONTINUOUS
 62
     7
100
AcDbText
 10
1817.2831403862
 20
-1521.4333866212
 30
0.0
 40
15.0
  1
c
  7
SEACAD_ARIAL_TTF
 11
1817.2831403862
 21
-1506.4333866212
 31
0.0
100
AcDbText
 73
     3
  0
TEXT
  5
347
330
21F
100
AcDbEntity
  8
SCALE
  6
CONTINUOUS
 62
     7
100
AcDbText
 10
1914.7788917762
 20
-1556.4333866212
 30
0.0
 40
15.0
  1
550
  7
SEACAD_ARIAL_TTF
 11
1914.7788917762
 21
-1541.4333866212
 31
0.0
100
AcDbText
 73
     3
  0
TEXT
  5
348
330
21F
100
AcDbEntity
  8
SCALE
  6
CONTINUOUS
 62
     7
100
AcDbText
 10
1917.2831403862
 20
-1521.4333866212
 30
0.0
 40
15.0
  1
d
  7
SEACAD_ARIAL_TTF
 11
1917.2831403862
 21
-1506.4333866212
 31
0.0
100
AcDbText
 73
     3
  0
TEXT
  5
349
330
21F
100
AcDbEntity
  8
SCALE
  6
CONTINUOUS
 62
     7
100
AcDbText
 10
595.1128438181
 20
-882.0075755805
 30
0.0
 40
15.0
  1
IPSiO PJ 高天井用パイプキット タイプ１
  7
SEACAD_ARIAL_TTF
 11
595.1128438181
 21
-867.0075755805
 31
0.0
100
AcDbText
 73
     3
  0
LINE
  5
34A
330
21F
100
AcDbEntity
  8
SCALE
  6
CONTINUOUS
 62
     7
100
AcDbLine
 10
2075.6198297093
 20
-1457.8281454474
 30
0.0
 11
2075.6198297093
 21
-1807.8281454474
 31
0.0
  0
TEXT
  5
34B
330
21F
100
AcDbEntity
  8
SCALE
  6
CONTINUOUS
 62
     7
100
AcDbText
 10
2007.981516611
 20
-1626.4333866212
 30
0.0
 40
15.0
  1
1.8
  7
SEACAD_ARIAL_TTF
 11
2007.981516611
 21
-1611.4333866212
 31
0.0
100
AcDbText
 73
     3
  0
TEXT
  5
34C
330
21F
100
AcDbEntity
  8
SCALE
  6
CONTINUOUS
 62
     7
100
AcDbText
 10
2007.981516611
 20
-1661.4333866212
 30
0.0
 40
15.0
  1
2.3
  7
SEACAD_ARIAL_TTF
 11
2007.981516611
 21
-1646.4333866212
 31
0.0
100
AcDbText
 73
     3
  0
TEXT
  5
34D
330
21F
100
AcDbEntity
  8
SCALE
  6
CONTINUOUS
 62
     7
100
AcDbText
 10
2007.9924844018
 20
-1766.4333866212
 30
0.0
 40
15.0
  1
3.5
  7
SEACAD_ARIAL_TTF
 11
2007.9924844018
 21
-1751.4333866212
 31
0.0
100
AcDbText
 73
     3
  0
TEXT
  5
34E
330
21F
100
AcDbEntity
  8
SCALE
  6
CONTINUOUS
 62
     7
100
AcDbText
 10
2003.8344458044
 20
-1731.4333866212
 30
0.0
 40
15.0
  1
3.1
  7
SEACAD_ARIAL_TTF
 11
2003.8344458044
 21
-1716.4333866212
 31
0.0
100
AcDbText
 73
     3
  0
TEXT
  5
34F
330
21F
100
AcDbEntity
  8
SCALE
  6
CONTINUOUS
 62
     7
100
AcDbText
 10
2007.981516611
 20
-1696.4333866212
 30
0.0
 40
15.0
  1
2.7
  7
SEACAD_ARIAL_TTF
 11
2007.981516611
 21
-1681.4333866212
 31
0.0
100
AcDbText
 73
     3
  0
TEXT
  5
350
330
21F
100
AcDbEntity
  8
SCALE
  6
CONTINUOUS
 62
     7
100
AcDbText
 10
2007.9924844018
 20
-1801.4333866212
 30
0.0
 40
15.0
  1
4.0
  7
SEACAD_ARIAL_TTF
 11
2007.9924844018
 21
-1786.4333866212
 31
0.0
100
AcDbText
 73
     3
  0
TEXT
  5
351
330
21F
100
AcDbEntity
  8
SCALE
  6
CONTINUOUS
 62
     7
100
AcDbText
 10
1983.5040194362
 20
-1504.1181657134
 30
0.0
 40
15.0
  1
質量（kg）
  7
SEACAD_ARIAL_TTF
 11
1983.5040194362
 21
-1489.1181657134
 31
0.0
100
AcDbText
 73
     3
  0
TEXT
  5
352
330
21F
100
AcDbEntity
  8
SCALE
  6
CONTINUOUS
 62
     7
100
AcDbText
 10
2007.981516611
 20
-1591.4333866212
 30
0.0
 40
15.0
  1
1.4
  7
SEACAD_ARIAL_TTF
 11
2007.981516611
 21
-1576.4333866212
 31
0.0
100
AcDbText
 73
     3
  0
TEXT
  5
353
330
21F
100
AcDbEntity
  8
SCALE
  6
CONTINUOUS
 62
     7
100
AcDbText
 10
2007.981516611
 20
-1556.4333866212
 30
0.0
 40
15.0
  1
1.0
  7
SEACAD_ARIAL_TTF
 11
2007.981516611
 21
-1541.4333866212
 31
0.0
100
AcDbText
 73
     3
  0
LINE
  5
354
330
21F
100
AcDbEntity
  8
SCALE
  6
CONTINUOUS
 62
     7
100
AcDbLine
 10
590.9608464174
 20
-860.3054189089
 30
0.0
 11
968.8992288073
 21
-860.3054189089
 31
0.0
  0
LINE
  5
355
330
21F
100
AcDbEntity
  8
SCALE
  6
CONTINUOUS
 62
     7
100
AcDbLine
 10
968.8992288073
 20
-860.3054189089
 30
0.0
 11
968.8992288073
 21
-891.2533235656
 31
0.0
  0
LINE
  5
356
330
21F
100
AcDbEntity
  8
SCALE
  6
CONTINUOUS
 62
     7
100
AcDbLine
 10
968.8992288073
 20
-891.2533235656
 30
0.0
 11
590.9608464174
 21
-891.2533235656
 31
0.0
  0
LINE
  5
357
330
21F
100
AcDbEntity
  8
SCALE
  6
CONTINUOUS
 62
     7
100
AcDbLine
 10
590.9608464174
 20
-891.2533235656
 30
0.0
 11
590.9608464174
 21
-860.3054189089
 31
0.0
  0
TEXT
  5
358
330
21F
100
AcDbEntity
  8
SCALE
  6
CONTINUOUS
 62
     7
100
AcDbText
 10
1324.7202888218
 20
-1591.4333866212
 30
0.0
 40
15.0
  1
IPSiO PJ パイプ タイプ2
  7
SEACAD_ARIAL_TTF
 11
1324.7202888218
 21
-1576.4333866212
 31
0.0
100
AcDbText
 73
     3
  0
TEXT
  5
359
330
21F
100
AcDbEntity
  8
SCALE
  6
CONTINUOUS
 62
     7
100
AcDbText
 10
1324.7202888218
 20
-1626.4333866212
 30
0.0
 40
15.0
  1
IPSiO PJ パイプ タイプ3
  7
SEACAD_ARIAL_TTF
 11
1324.7202888218
 21
-1611.4333866212
 31
0.0
100
AcDbText
 73
     3
  0
TEXT
  5
35A
330
21F
100
AcDbEntity
  8
SCALE
  6
CONTINUOUS
 62
     7
100
AcDbText
 10
1324.7202888218
 20
-1661.4333866212
 30
0.0
 40
15.0
  1
IPSiO PJ パイプ タイプ4
  7
SEACAD_ARIAL_TTF
 11
1324.7202888218
 21
-1646.4333866212
 31
0.0
100
AcDbText
 73
     3
  0
TEXT
  5
35B
330
21F
100
AcDbEntity
  8
SCALE
  6
CONTINUOUS
 62
     7
100
AcDbText
 10
1324.7202888218
 20
-1696.4333866212
 30
0.0
 40
15.0
  1
IPSiO PJ パイプ タイプ5
  7
SEACAD_ARIAL_TTF
 11
1324.7202888218
 21
-1681.4333866212
 31
0.0
100
AcDbText
 73
     3
  0
TEXT
  5
35C
330
21F
100
AcDbEntity
  8
SCALE
  6
CONTINUOUS
 62
     7
100
AcDbText
 10
1324.7202888218
 20
-1731.4333866212
 30
0.0
 40
15.0
  1
IPSiO PJ パイプ タイプ6
  7
SEACAD_ARIAL_TTF
 11
1324.7202888218
 21
-1716.4333866212
 31
0.0
100
AcDbText
 73
     3
  0
TEXT
  5
35D
330
21F
100
AcDbEntity
  8
SCALE
  6
CONTINUOUS
 62
     7
100
AcDbText
 10
1324.7202888218
 20
-1766.4333866212
 30
0.0
 40
15.0
  1
IPSiO PJ パイプ タイプ7
  7
SEACAD_ARIAL_TTF
 11
1324.7202888218
 21
-1751.4333866212
 31
0.0
100
AcDbText
 73
     3
  0
TEXT
  5
35E
330
21F
100
AcDbEntity
  8
SCALE
  6
CONTINUOUS
 62
     7
100
AcDbText
 10
1324.7202888218
 20
-1801.4333866212
 30
0.0
 40
15.0
  1
IPSiO PJ パイプ タイプ8
  7
SEACAD_ARIAL_TTF
 11
1324.7202888218
 21
-1786.4333866212
 31
0.0
100
AcDbText
 73
     3
  0
CIRCLE
  5
35F
330
21F
100
AcDbEntity
  8
_TRANSLATION
  6
CONTINUOUS
 62
     7
100
AcDbCircle
 10
871.9086814923
 20
-1004.1229869813
 30
0.0
 40
0.0099999999999909
  0
CIRCLE
  5
360
330
21F
100
AcDbEntity
  8
_TRANSLATION
  6
CONTINUOUS
 62
     7
100
AcDbCircle
 10
768.9086814923
 20
-1310.1229869813
 30
0.0
 40
0.0099999999999909
  0
LINE
  5
361
330
21F
100
AcDbEntity
  8
_TRANSLATION
  6
CONTINUOUS
 62
     7
100
AcDbLine
 10
970.9401119773
 20
-1004.1229869813
 30
0.0
 11
970.9401119773
 21
-1310.1229869813
 31
0.0
  0
LINE
  5
362
330
21F
100
AcDbEntity
  8
0
  6
DASHDOT2
 62
     7
100
AcDbLine
 10
1632.6142541367
 20
-1112.9986037047
 30
0.0
 11
1650.6007465382
 21
-1112.9986037047
 31
0.0
  0
INSERT
  5
363
330
21F
100
AcDbEntity
  8
0
 62
     7
100
AcDbBlockReference
  2
SEANNOT_GROUP5
 10
64.0808493829
 20
0.0
 30
0.0
  0
LINE
  5
364
330
21F
100
AcDbEntity
  8
0
  6
CONTINUOUS
 62
     7
100
AcDbLine
 10
830.7681507313
 20
-1633.0371619435
 30
0.0
 11
830.7681507313
 21
-1673.4586074577
 31
0.0
  0
ARC
  5
365
330
21F
100
AcDbEntity
  8
0
  6
CONTINUOUS
 62
     7
100
AcDbCircle
 10
833.0181507313
 20
-1673.4586074576
 30
0.0
 40
2.25
100
AcDbArc
 50
180.0000000027
 51
195.7612886359
  0
LINE
  5
366
330
21F
100
AcDbEntity
  8
0
  6
CONTINUOUS
 62
     7
100
AcDbLine
 10
838.018150731
 20
-1674.0697751179
 30
0.0
 11
838.018150731
 21
-1673.2086074577
 31
0.0
  0
LINE
  5
367
330
21F
100
AcDbEntity
  8
0
  6
CONTINUOUS
 62
     7
100
AcDbLine
 10
838.018150731
 20
-1673.2086074577
 30
0.0
 11
833.018150731
 21
-1673.2086074577
 31
0.0
  0
LINE
  5
368
330
21F
100
AcDbEntity
  8
0
  6
CONTINUOUS
 62
     7
100
AcDbLine
 10
833.018150731
 20
-1673.2086074577
 30
0.0
 11
833.018150731
 21
-1632.2859790212
 31
0.0
  0
LINE
  5
369
330
21F
100
AcDbEntity
  8
0
  6
CONTINUOUS
 62
     7
100
AcDbLine
 10
830.2895308752
 20
-1676.3697751186
 30
0.0
 11
830.2895308752
 21
-1678.7086074577
 31
0.0
  0
INSERT
  5
36A
330
21F
100
AcDbEntity
  8
SCALE
 62
     7
100
AcDbBlockReference
  2
GDIMGGROUP
 10
64.0808493829
 20
0.0
 30
0.0
  0
INSERT
  5
36B
330
21F
100
AcDbEntity
  8
SCALE
 62
     7
100
AcDbBlockReference
  2
GDIMGGROUP1
 10
64.0808493829
 20
0.0
 30
0.0
  0
INSERT
  5
36C
330
21F
100
AcDbEntity
  8
SCALE
 62
     7
100
AcDbBlockReference
  2
GDIMGGROUP2
 10
64.0808493829
 20
0.0
 30
0.0
  0
POLYLINE
  5
36D
330
21F
100
AcDbEntity
  8
0
  6
CONTINUOUS
 62
     7
100
AcDb2dPolyline
 66
     1
 10
0.0
 20
0.0
 30
0.0
  0
VERTEX
  5
3FF
330
36D
100
AcDbEntity
  8
0
  6
CONTINUOUS
 62
     7
100
AcDbVertex
100
AcDb2dVertex
 10
833.018150731
 20
-1632.2859790212
 30
0.0
  0
VERTEX
  5
400
330
36D
100
AcDbEntity
  8
0
  6
CONTINUOUS
 62
     7
100
AcDbVertex
100
AcDb2dVertex
 10
832.9965740436
 20
-1632.2930562012
 30
0.0
  0
VERTEX
  5
401
330
36D
100
AcDbEntity
  8
0
  6
CONTINUOUS
 62
     7
100
AcDbVertex
100
AcDb2dVertex
 10
832.9749721143
 20
-1632.3001394774
 30
0.0
  0
VERTEX
  5
402
330
36D
100
AcDbEntity
  8
0
  6
CONTINUOUS
 62
     7
100
AcDbVertex
100
AcDb2dVertex
 10
832.9533451448
 20
-1632.3072289317
 30
0.0
  0
VERTEX
  5
403
330
36D
100
AcDbEntity
  8
0
  6
CONTINUOUS
 62
     7
100
AcDbVertex
100
AcDb2dVertex
 10
832.9316933367
 20
-1632.3143246465
 30
0.0
  0
VERTEX
  5
404
330
36D
100
AcDbEntity
  8
0
  6
CONTINUOUS
 62
     7
100
AcDbVertex
100
AcDb2dVertex
 10
832.9100168918
 20
-1632.3214267038
 30
0.0
  0
VERTEX
  5
405
330
36D
100
AcDbEntity
  8
0
  6
CONTINUOUS
 62
     7
100
AcDbVertex
100
AcDb2dVertex
 10
832.8883160118
 20
-1632.328535186
 30
0.0
  0
VERTEX
  5
406
330
36D
100
AcDbEntity
  8
0
  6
CONTINUOUS
 62
     7
100
AcDbVertex
100
AcDb2dVertex
 10
832.8665908983
 20
-1632.3356501751
 30
0.0
  0
VERTEX
  5
407
330
36D
100
AcDbEntity
  8
0
  6
CONTINUOUS
 62
     7
100
AcDbVertex
100
AcDb2dVertex
 10
832.8448417532
 20
-1632.3427717534
 30
0.0
  0
VERTEX
  5
408
330
36D
100
AcDbEntity
  8
0
  6
CONTINUOUS
 62
     7
100
AcDbVertex
100
AcDb2dVertex
 10
832.8230687781
 20
-1632.349900003
 30
0.0
  0
VERTEX
  5
409
330
36D
100
AcDbEntity
  8
0
  6
CONTINUOUS
 62
     7
100
AcDbVertex
100
AcDb2dVertex
 10
832.8012721748
 20
-1632.3570350062
 30
0.0
  0
VERTEX
  5
40A
330
36D
100
AcDbEntity
  8
0
  6
CONTINUOUS
 62
     7
100
AcDbVertex
100
AcDb2dVertex
 10
832.7794521448
 20
-1632.3641768451
 30
0.0
  0
VERTEX
  5
40B
330
36D
100
AcDbEntity
  8
0
  6
CONTINUOUS
 62
     7
100
AcDbVertex
100
AcDb2dVertex
 10
832.75760889
 20
-1632.3713256019
 30
0.0
  0
VERTEX
  5
40C
330
36D
100
AcDbEntity
  8
0
  6
CONTINUOUS
 62
     7
100
AcDbVertex
100
AcDb2dVertex
 10
832.7357426121
 20
-1632.3784813588
 30
0.0
  0
VERTEX
  5
40D
330
36D
100
AcDbEntity
  8
0
  6
CONTINUOUS
 62
     7
100
AcDbVertex
100
AcDb2dVertex
 10
832.7138535127
 20
-1632.3856441979
 30
0.0
  0
VERTEX
  5
40E
330
36D
100
AcDbEntity
  8
0
  6
CONTINUOUS
 62
     7
100
AcDbVertex
100
AcDb2dVertex
 10
832.6919417936
 20
-1632.3928142015
 30
0.0
  0
VERTEX
  5
40F
330
36D
100
AcDbEntity
  8
0
  6
CONTINUOUS
 62
     7
100
AcDbVertex
100
AcDb2dVertex
 10
832.6700076564
 20
-1632.3999914518
 30
0.0
  0
VERTEX
  5
410
330
36D
100
AcDbEntity
  8
0
  6
CONTINUOUS
 62
     7
100
AcDbVertex
100
AcDb2dVertex
 10
832.648051303
 20
-1632.4071760309
 30
0.0
  0
VERTEX
  5
411
330
36D
100
AcDbEntity
  8
0
  6
CONTINUOUS
 62
     7
100
AcDbVertex
100
AcDb2dVertex
 10
832.6260729349
 20
-1632.414368021
 30
0.0
  0
VERTEX
  5
412
330
36D
100
AcDbEntity
  8
0
  6
CONTINUOUS
 62
     7
100
AcDbVertex
100
AcDb2dVertex
 10
832.604072754
 20
-1632.4215675044
 30
0.0
  0
VERTEX
  5
413
330
36D
100
AcDbEntity
  8
0
  6
CONTINUOUS
 62
     7
100
AcDbVertex
100
AcDb2dVertex
 10
832.5820509619
 20
-1632.4287745631
 30
0.0
  0
VERTEX
  5
414
330
36D
100
AcDbEntity
  8
0
  6
CONTINUOUS
 62
     7
100
AcDbVertex
100
AcDb2dVertex
 10
832.5600077603
 20
-1632.4359892794
 30
0.0
  0
VERTEX
  5
415
330
36D
100
AcDbEntity
  8
0
  6
CONTINUOUS
 62
     7
100
AcDbVertex
100
AcDb2dVertex
 10
832.5379433509
 20
-1632.4432117355
 30
0.0
  0
VERTEX
  5
416
330
36D
100
AcDbEntity
  8
0
  6
CONTINUOUS
 62
     7
100
AcDbVertex
100
AcDb2dVertex
 10
832.5158579355
 20
-1632.4504420135
 30
0.0
  0
VERTEX
  5
417
330
36D
100
AcDbEntity
  8
0
  6
CONTINUOUS
 62
     7
100
AcDbVertex
100
AcDb2dVertex
 10
832.4937517158
 20
-1632.4576801957
 30
0.0
  0
VERTEX
  5
418
330
36D
100
AcDbEntity
  8
0
  6
CONTINUOUS
 62
     7
100
AcDbVertex
100
AcDb2dVertex
 10
832.4716248934
 20
-1632.4649263642
 30
0.0
  0
VERTEX
  5
419
330
36D
100
AcDbEntity
  8
0
  6
CONTINUOUS
 62
     7
100
AcDbVertex
100
AcDb2dVertex
 10
832.44947767
 20
-1632.4721806012
 30
0.0
  0
VERTEX
  5
41A
330
36D
100
AcDbEntity
  8
0
  6
CONTINUOUS
 62
     7
100
AcDbVertex
100
AcDb2dVertex
 10
832.4273102475
 20
-1632.4794429889
 30
0.0
  0
VERTEX
  5
41B
330
36D
100
AcDbEntity
  8
0
  6
CONTINUOUS
 62
     7
100
AcDbVertex
100
AcDb2dVertex
 10
832.4051228274
 20
-1632.4867136094
 30
0.0
  0
VERTEX
  5
41C
330
36D
100
AcDbEntity
  8
0
  6
CONTINUOUS
 62
     7
100
AcDbVertex
100
AcDb2dVertex
 10
832.3829156116
 20
-1632.4939925451
 30
0.0
  0
VERTEX
  5
41D
330
36D
100
AcDbEntity
  8
0
  6
CONTINUOUS
 62
     7
100
AcDbVertex
100
AcDb2dVertex
 10
832.3606888017
 20
-1632.501279878
 30
0.0
  0
VERTEX
  5
41E
330
36D
100
AcDbEntity
  8
0
  6
CONTINUOUS
 62
     7
100
AcDbVertex
100
AcDb2dVertex
 10
832.3384425993
 20
-1632.5085756903
 30
0.0
  0
VERTEX
  5
41F
330
36D
100
AcDbEntity
  8
0
  6
CONTINUOUS
 62
     7
100
AcDbVertex
100
AcDb2dVertex
 10
832.3161772063
 20
-1632.5158800643
 30
0.0
  0
VERTEX
  5
420
330
36D
100
AcDbEntity
  8
0
  6
CONTINUOUS
 62
     7
100
AcDbVertex
100
AcDb2dVertex
 10
832.2938928244
 20
-1632.5231930821
 30
0.0
  0
VERTEX
  5
421
330
36D
100
AcDbEntity
  8
0
  6
CONTINUOUS
 62
     7
100
AcDbVertex
100
AcDb2dVertex
 10
832.2715896552
 20
-1632.5305148259
 30
0.0
  0
VERTEX
  5
422
330
36D
100
AcDbEntity
  8
0
  6
CONTINUOUS
 62
     7
100
AcDbVertex
100
AcDb2dVertex
 10
832.2492679004
 20
-1632.5378453779
 30
0.0
  0
VERTEX
  5
423
330
36D
100
AcDbEntity
  8
0
  6
CONTINUOUS
 62
     7
100
AcDbVertex
100
AcDb2dVertex
 10
832.2269277618
 20
-1632.5451848202
 30
0.0
  0
VERTEX
  5
424
330
36D
100
AcDbEntity
  8
0
  6
CONTINUOUS
 62
     7
100
AcDbVertex
100
AcDb2dVertex
 10
832.2045694411
 20
-1632.5525332351
 30
0.0
  0
VERTEX
  5
425
330
36D
100
AcDbEntity
  8
0
  6
CONTINUOUS
 62
     7
100
AcDbVertex
100
AcDb2dVertex
 10
832.18219314
 20
-1632.5598907048
 30
0.0
  0
VERTEX
  5
426
330
36D
100
AcDbEntity
  8
0
  6
CONTINUOUS
 62
     7
100
AcDbVertex
100
AcDb2dVertex
 10
832.1597990601
 20
-1632.5672573113
 30
0.0
  0
VERTEX
  5
427
330
36D
100
AcDbEntity
  8
0
  6
CONTINUOUS
 62
     7
100
AcDbVertex
100
AcDb2dVertex
 10
832.1373874033
 20
-1632.574633137
 30
0.0
  0
VERTEX
  5
428
330
36D
100
AcDbEntity
  8
0
  6
CONTINUOUS
 62
     7
100
AcDbVertex
100
AcDb2dVertex
 10
832.1149583712
 20
-1632.582018264
 30
0.0
  0
VERTEX
  5
429
330
36D
100
AcDbEntity
  8
0
  6
CONTINUOUS
 62
     7
100
AcDbVertex
100
AcDb2dVertex
 10
832.0925121655
 20
-1632.5894127745
 30
0.0
  0
VERTEX
  5
42A
330
36D
100
AcDbEntity
  8
0
  6
CONTINUOUS
 62
     7
100
AcDbVertex
100
AcDb2dVertex
 10
832.0700489879
 20
-1632.5968167507
 30
0.0
  0
VERTEX
  5
42B
330
36D
100
AcDbEntity
  8
0
  6
CONTINUOUS
 62
     7
100
AcDbVertex
100
AcDb2dVertex
 10
832.0475690402
 20
-1632.6042302747
 30
0.0
  0
VERTEX
  5
42C
330
36D
100
AcDbEntity
  8
0
  6
CONTINUOUS
 62
     7
100
AcDbVertex
100
AcDb2dVertex
 10
832.025072524
 20
-1632.6116534288
 30
0.0
  0
VERTEX
  5
42D
330
36D
100
AcDbEntity
  8
0
  6
CONTINUOUS
 62
     7
100
AcDbVertex
100
AcDb2dVertex
 10
832.0025596411
 20
-1632.6190862951
 30
0.0
  0
VERTEX
  5
42E
330
36D
100
AcDbEntity
  8
0
  6
CONTINUOUS
 62
     7
100
AcDbVertex
100
AcDb2dVertex
 10
831.9800305931
 20
-1632.6265289558
 30
0.0
  0
VERTEX
  5
42F
330
36D
100
AcDbEntity
  8
0
  6
CONTINUOUS
 62
     7
100
AcDbVertex
100
AcDb2dVertex
 10
831.9574855818
 20
-1632.6339814932
 30
0.0
  0
VERTEX
  5
430
330
36D
100
AcDbEntity
  8
0
  6
CONTINUOUS
 62
     7
100
AcDbVertex
100
AcDb2dVertex
 10
831.9349248089
 20
-1632.6414439893
 30
0.0
  0
VERTEX
  5
431
330
36D
100
AcDbEntity
  8
0
  6
CONTINUOUS
 62
     7
100
AcDbVertex
100
AcDb2dVertex
 10
831.9123484761
 20
-1632.6489165264
 30
0.0
  0
VERTEX
  5
432
330
36D
100
AcDbEntity
  8
0
  6
CONTINUOUS
 62
     7
100
AcDbVertex
100
AcDb2dVertex
 10
831.8897567851
 20
-1632.6563991867
 30
0.0
  0
VERTEX
  5
433
330
36D
100
AcDbEntity
  8
0
  6
CONTINUOUS
 62
     7
100
AcDbVertex
100
AcDb2dVertex
 10
831.8671499376
 20
-1632.6638920523
 30
0.0
  0
VERTEX
  5
434
330
36D
100
AcDbEntity
  8
0
  6
CONTINUOUS
 62
     7
100
AcDbVertex
100
AcDb2dVertex
 10
831.8445281353
 20
-1632.6713952055
 30
0.0
  0
VERTEX
  5
435
330
36D
100
AcDbEntity
  8
0
  6
CONTINUOUS
 62
     7
100
AcDbVertex
100
AcDb2dVertex
 10
831.82189158
 20
-1632.6789087284
 30
0.0
  0
VERTEX
  5
436
330
36D
100
AcDbEntity
  8
0
  6
CONTINUOUS
 62
     7
100
AcDbVertex
100
AcDb2dVertex
 10
831.7992404733
 20
-1632.6864327032
 30
0.0
  0
VERTEX
  5
437
330
36D
100
AcDbEntity
  8
0
  6
CONTINUOUS
 62
     7
100
AcDbVertex
100
AcDb2dVertex
 10
831.776575017
 20
-1632.693967212
 30
0.0
  0
VERTEX
  5
438
330
36D
100
AcDbEntity
  8
0
  6
CONTINUOUS
 62
     7
100
AcDbVertex
100
AcDb2dVertex
 10
831.7538954127
 20
-1632.7015123372
 30
0.0
  0
VERTEX
  5
439
330
36D
100
AcDbEntity
  8
0
  6
CONTINUOUS
 62
     7
100
AcDbVertex
100
AcDb2dVertex
 10
831.7312018622
 20
-1632.7090681608
 30
0.0
  0
VERTEX
  5
43A
330
36D
100
AcDbEntity
  8
0
  6
CONTINUOUS
 62
     7
100
AcDbVertex
100
AcDb2dVertex
 10
831.7084945671
 20
-1632.7166347651
 30
0.0
  0
VERTEX
  5
43B
330
36D
100
AcDbEntity
  8
0
  6
CONTINUOUS
 62
     7
100
AcDbVertex
100
AcDb2dVertex
 10
831.6857737293
 20
-1632.7242122323
 30
0.0
  0
VERTEX
  5
43C
330
36D
100
AcDbEntity
  8
0
  6
CONTINUOUS
 62
     7
100
AcDbVertex
100
AcDb2dVertex
 10
831.6630395503
 20
-1632.7318006444
 30
0.0
  0
VERTEX
  5
43D
330
36D
100
AcDbEntity
  8
0
  6
CONTINUOUS
 62
     7
100
AcDbVertex
100
AcDb2dVertex
 10
831.640292232
 20
-1632.7394000838
 30
0.0
  0
VERTEX
  5
43E
330
36D
100
AcDbEntity
  8
0
  6
CONTINUOUS
 62
     7
100
AcDbVertex
100
AcDb2dVertex
 10
831.6175319759
 20
-1632.7470106326
 30
0.0
  0
VERTEX
  5
43F
330
36D
100
AcDbEntity
  8
0
  6
CONTINUOUS
 62
     7
100
AcDbVertex
100
AcDb2dVertex
 10
831.5947589839
 20
-1632.7546323729
 30
0.0
  0
VERTEX
  5
440
330
36D
100
AcDbEntity
  8
0
  6
CONTINUOUS
 62
     7
100
AcDbVertex
100
AcDb2dVertex
 10
831.5719734577
 20
-1632.762265387
 30
0.0
  0
VERTEX
  5
441
330
36D
100
AcDbEntity
  8
0
  6
CONTINUOUS
 62
     7
100
AcDbVertex
100
AcDb2dVertex
 10
831.5491755988
 20
-1632.7699097571
 30
0.0
  0
VERTEX
  5
442
330
36D
100
AcDbEntity
  8
0
  6
CONTINUOUS
 62
     7
100
AcDbVertex
100
AcDb2dVertex
 10
831.5263656091
 20
-1632.7775655654
 30
0.0
  0
VERTEX
  5
443
330
36D
100
AcDbEntity
  8
0
  6
CONTINUOUS
 62
     7
100
AcDbVertex
100
AcDb2dVertex
 10
831.5035436903
 20
-1632.7852328939
 30
0.0
  0
VERTEX
  5
444
330
36D
100
AcDbEntity
  8
0
  6
CONTINUOUS
 62
     7
100
AcDbVertex
100
AcDb2dVertex
 10
831.4807100441
 20
-1632.792911825
 30
0.0
  0
VERTEX
  5
445
330
36D
100
AcDbEntity
  8
0
  6
CONTINUOUS
 62
     7
100
AcDbVertex
100
AcDb2dVertex
 10
831.4578648721
 20
-1632.8006024408
 30
0.0
  0
VERTEX
  5
446
330
36D
100
AcDbEntity
  8
0
  6
CONTINUOUS
 62
     7
100
AcDbVertex
100
AcDb2dVertex
 10
831.4350083761
 20
-1632.8083048234
 30
0.0
  0
VERTEX
  5
447
330
36D
100
AcDbEntity
  8
0
  6
CONTINUOUS
 62
     7
100
AcDbVertex
100
AcDb2dVertex
 10
831.4121407578
 20
-1632.8160190551
 30
0.0
  0
VERTEX
  5
448
330
36D
100
AcDbEntity
  8
0
  6
CONTINUOUS
 62
     7
100
AcDbVertex
100
AcDb2dVertex
 10
831.389262219
 20
-1632.8237452181
 30
0.0
  0
VERTEX
  5
449
330
36D
100
AcDbEntity
  8
0
  6
CONTINUOUS
 62
     7
100
AcDbVertex
100
AcDb2dVertex
 10
831.3663729612
 20
-1632.8314833946
 30
0.0
  0
VERTEX
  5
44A
330
36D
100
AcDbEntity
  8
0
  6
CONTINUOUS
 62
     7
100
AcDbVertex
100
AcDb2dVertex
 10
831.3434731863
 20
-1632.8392336667
 30
0.0
  0
VERTEX
  5
44B
330
36D
100
AcDbEntity
  8
0
  6
CONTINUOUS
 62
     7
100
AcDbVertex
100
AcDb2dVertex
 10
831.3205630959
 20
-1632.8469961165
 30
0.0
  0
VERTEX
  5
44C
330
36D
100
AcDbEntity
  8
0
  6
CONTINUOUS
 62
     7
100
AcDbVertex
100
AcDb2dVertex
 10
831.2976428917
 20
-1632.8547708264
 30
0.0
  0
VERTEX
  5
44D
330
36D
100
AcDbEntity
  8
0
  6
CONTINUOUS
 62
     7
100
AcDbVertex
100
AcDb2dVertex
 10
831.2747127755
 20
-1632.8625578785
 30
0.0
  0
VERTEX
  5
44E
330
36D
100
AcDbEntity
  8
0
  6
CONTINUOUS
 62
     7
100
AcDbVertex
100
AcDb2dVertex
 10
831.251772949
 20
-1632.870357355
 30
0.0
  0
VERTEX
  5
44F
330
36D
100
AcDbEntity
  8
0
  6
CONTINUOUS
 62
     7
100
AcDbVertex
100
AcDb2dVertex
 10
831.2288236138
 20
-1632.878169338
 30
0.0
  0
VERTEX
  5
450
330
36D
100
AcDbEntity
  8
0
  6
CONTINUOUS
 62
     7
100
AcDbVertex
100
AcDb2dVertex
 10
831.2058649718
 20
-1632.8859939098
 30
0.0
  0
VERTEX
  5
451
330
36D
100
AcDbEntity
  8
0
  6
CONTINUOUS
 62
     7
100
AcDbVertex
100
AcDb2dVertex
 10
831.1828972245
 20
-1632.8938311525
 30
0.0
  0
VERTEX
  5
452
330
36D
100
AcDbEntity
  8
0
  6
CONTINUOUS
 62
     7
100
AcDbVertex
100
AcDb2dVertex
 10
831.1599205737
 20
-1632.9016811483
 30
0.0
  0
VERTEX
  5
453
330
36D
100
AcDbEntity
  8
0
  6
CONTINUOUS
 62
     7
100
AcDbVertex
100
AcDb2dVertex
 10
831.1369352211
 20
-1632.9095439795
 30
0.0
  0
VERTEX
  5
454
330
36D
100
AcDbEntity
  8
0
  6
CONTINUOUS
 62
     7
100
AcDbVertex
100
AcDb2dVertex
 10
831.1139413684
 20
-1632.9174197281
 30
0.0
  0
VERTEX
  5
455
330
36D
100
AcDbEntity
  8
0
  6
CONTINUOUS
 62
     7
100
AcDbVertex
100
AcDb2dVertex
 10
831.0909392174
 20
-1632.9253084764
 30
0.0
  0
VERTEX
  5
456
330
36D
100
AcDbEntity
  8
0
  6
CONTINUOUS
 62
     7
100
AcDbVertex
100
AcDb2dVertex
 10
831.0679289697
 20
-1632.9332103066
 30
0.0
  0
VERTEX
  5
457
330
36D
100
AcDbEntity
  8
0
  6
CONTINUOUS
 62
     7
100
AcDbVertex
100
AcDb2dVertex
 10
831.044910827
 20
-1632.9411253009
 30
0.0
  0
VERTEX
  5
458
330
36D
100
AcDbEntity
  8
0
  6
CONTINUOUS
 62
     7
100
AcDbVertex
100
AcDb2dVertex
 10
831.0218849911
 20
-1632.9490535413
 30
0.0
  0
VERTEX
  5
459
330
36D
100
AcDbEntity
  8
0
  6
CONTINUOUS
 62
     7
100
AcDbVertex
100
AcDb2dVertex
 10
830.9988516637
 20
-1632.9569951102
 30
0.0
  0
VERTEX
  5
45A
330
36D
100
AcDbEntity
  8
0
  6
CONTINUOUS
 62
     7
100
AcDbVertex
100
AcDb2dVertex
 10
830.9758110465
 20
-1632.9649500897
 30
0.0
  0
VERTEX
  5
45B
330
36D
100
AcDbEntity
  8
0
  6
CONTINUOUS
 62
     7
100
AcDbVertex
100
AcDb2dVertex
 10
830.9527633411
 20
-1632.972918562
 30
0.0
  0
VERTEX
  5
45C
330
36D
100
AcDbEntity
  8
0
  6
CONTINUOUS
 62
     7
100
AcDbVertex
100
AcDb2dVertex
 10
830.9297087493
 20
-1632.9809006093
 30
0.0
  0
VERTEX
  5
45D
330
36D
100
AcDbEntity
  8
0
  6
CONTINUOUS
 62
     7
100
AcDbVertex
100
AcDb2dVertex
 10
830.9066474728
 20
-1632.9888963138
 30
0.0
  0
VERTEX
  5
45E
330
36D
100
AcDbEntity
  8
0
  6
CONTINUOUS
 62
     7
100
AcDbVertex
100
AcDb2dVertex
 10
830.8835797134
 20
-1632.9969057576
 30
0.0
  0
VERTEX
  5
45F
330
36D
100
AcDbEntity
  8
0
  6
CONTINUOUS
 62
     7
100
AcDbVertex
100
AcDb2dVertex
 10
830.8605056726
 20
-1633.004929023
 30
0.0
  0
VERTEX
  5
460
330
36D
100
AcDbEntity
  8
0
  6
CONTINUOUS
 62
     7
100
AcDbVertex
100
AcDb2dVertex
 10
830.8374255523
 20
-1633.0129661921
 30
0.0
  0
VERTEX
  5
461
330
36D
100
AcDbEntity
  8
0
  6
CONTINUOUS
 62
     7
100
AcDbVertex
100
AcDb2dVertex
 10
830.8143395541
 20
-1633.0210173471
 30
0.0
  0
VERTEX
  5
462
330
36D
100
AcDbEntity
  8
0
  6
CONTINUOUS
 62
     7
100
AcDbVertex
100
AcDb2dVertex
 10
830.7912478798
 20
-1633.0290825702
 30
0.0
  0
SEQEND
  5
463
330
36D
100
AcDbEntity
  8
0
  6
CONTINUOUS
 62
     7
  0
INSERT
  5
36E
330
21F
100
AcDbEntity
  8
SCALE
 62
     7
100
AcDbBlockReference
  2
GDIMGGROUP3
 10
64.0808493829
 20
0.0
 30
0.0
  0
INSERT
  5
36F
330
21F
100
AcDbEntity
  8
SCALE
 62
     7
100
AcDbBlockReference
  2
GDIMGGROUP4
 10
64.0808493829
 20
0.0
 30
0.0
  0
INSERT
  5
370
330
21F
100
AcDbEntity
  8
SCALE
 62
     7
100
AcDbBlockReference
  2
SE
 10
64.0808493829
 20
0.0
 30
0.0
  0
INSERT
  5
371
330
21F
100
AcDbEntity
  8
SCALE
 62
     7
100
AcDbBlockReference
  2
SE1
 10
64.0808493829
 20
0.0
 30
0.0
  0
INSERT
  5
372
330
21F
100
AcDbEntity
  8
SCALE
 62
     7
100
AcDbBlockReference
  2
SE2
 10
64.0808493829
 20
0.0
 30
0.0
  0
INSERT
  5
373
330
21F
100
AcDbEntity
  8
SCALE
 62
     7
100
AcDbBlockReference
  2
SE3
 10
64.0808493829
 20
0.0
 30
0.0
  0
INSERT
  5
374
330
21F
100
AcDbEntity
  8
SCALE
 62
     7
100
AcDbBlockReference
  2
GDIMGGROUP5
 10
64.0808493829
 20
0.0
 30
0.0
  0
INSERT
  5
375
330
21F
100
AcDbEntity
  8
SCALE
 62
     7
100
AcDbBlockReference
  2
SE4
 10
-105.8530466703
 20
-17.8877785319
 30
0.0
  0
INSERT
  5
376
330
21F
100
AcDbEntity
  8
SCALE
 62
     7
100
AcDbBlockReference
  2
GDIMGGROUP6
 10
64.0808493829
 20
0.0
 30
0.0
  0
INSERT
  5
377
330
21F
100
AcDbEntity
  8
SCALE
 62
     7
100
AcDbBlockReference
  2
SE5
 10
-105.8530466703
 20
-17.8877785319
 30
0.0
  0
INSERT
  5
378
330
21F
100
AcDbEntity
  8
OSM-SCALE
 62
     7
100
AcDbBlockReference
  2
GDIMGGROUP7
 10
64.0808493829
 20
0.0
 30
0.0
  0
INSERT
  5
379
330
21F
100
AcDbEntity
  8
DEFAULT
 62
     7
100
AcDbBlockReference
  2
SE6
 10
64.0808493829
 20
0.0
 30
0.0
  0
INSERT
  5
37A
330
21F
100
AcDbEntity
  8
0
 62
     7
100
AcDbBlockReference
  2
GDIMGGROUP8
 10
-105.8530466703
 20
-17.8877785319
 30
0.0
  0
INSERT
  5
37B
330
21F
100
AcDbEntity
  8
0
 62
     7
100
AcDbBlockReference
  2
GDIMGGROUP9
 10
-105.8530466703
 20
-17.8877785319
 30
0.0
  0
INSERT
  5
37C
330
21F
100
AcDbEntity
  8
0
 62
     7
100
AcDbBlockReference
  2
GDIMGGROUP10
 10
-105.8530466703
 20
-17.8877785319
 30
0.0
  0
INSERT
  5
37D
330
21F
100
AcDbEntity
  8
0
 62
     7
100
AcDbBlockReference
  2
GDIMGGROUP11
 10
-105.8530466703
 20
-17.8877785319
 30
0.0
  0
ENDBLK
  5
37F
330
21F
100
AcDbEntity
  8
0
100
AcDbBlockEnd
  0
BLOCK
  5
382
330
380
100
AcDbEntity
  8
0
100
AcDbBlockBegin
  2
高天井用パイプ
 70
     0
 10
0.0
 20
0.0
 30
0.0
  3
高天井用パイプ
  1

  0
INSERT
  5
381
330
380
100
AcDbEntity
  8
DEFAULT
 62
     7
100
AcDbBlockReference
  2
PIPE_KIT
 10
-109.6205363276
 20
475.6526247299
 30
0.0
 41
0.25
 42
0.25
 43
0.25
  0
ENDBLK
  5
383
330
380
100
AcDbEntity
  8
0
100
AcDbBlockEnd
  0
ENDSEC
  0
SECTION
  2
ENTITIES
  0
INSERT
  5
384
330
1F
100
AcDbEntity
  8
DEFAULT
 62
     7
100
AcDbBlockReference
  2
高天井用パイプ
 10
-5.2369190417
 20
0.0103339353
 30
0.0
  0
ENDSEC
  0
SECTION
  2
OBJECTS
  0
DICTIONARY
  5
C
330
0
100
AcDbDictionary
  3
ACAD_GROUP
350
D
  3
ACAD_LAYOUT
350
1A
  3
ACAD_MLEADERSTYLE
350
387
  3
ACAD_MLINESTYLE
350
17
  3
ACAD_PLOTSETTINGS
350
19
  3
ACAD_SCALELIST
350
3B
  3
ACAD_VISUALSTYLE
350
2A
  3
ACDBVARIABLEDICTIONARY
350
385
1001
ACAD
1000
TREAT_AS_HARD
1070
     0
  0
DICTIONARY
  5
D
102
{ACAD_REACTORS
330
C
102
}
330
C
100
AcDbDictionary
1001
ACAD
1000
TREAT_AS_HARD
1070
     0
  0
DICTIONARY
  5
1A
102
{ACAD_REACTORS
330
C
102
}
330
C
100
AcDbDictionary
1001
ACAD
1000
TREAT_AS_HARD
1070
     0
  0
DICTIONARY
  5
387
102
{ACAD_REACTORS
330
C
102
}
330
C
100
AcDbDictionary
1001
ACAD
1000
TREAT_AS_HARD
1070
     0
  0
DICTIONARY
  5
17
102
{ACAD_REACTORS
330
C
102
}
330
C
100
AcDbDictionary
  3
STANDARD
350
18
1001
ACAD
1000
TREAT_AS_HARD
1070
     0
  0
DICTIONARY
  5
19
102
{ACAD_REACTORS
330
C
102
}
330
C
100
AcDbDictionary
1001
ACAD
1000
TREAT_AS_HARD
1070
     0
  0
DICTIONARY
  5
3B
102
{ACAD_REACTORS
330
C
102
}
330
C
100
AcDbDictionary
  3
A0
350
3C
  3
A1
350
3D
  3
A2
350
3E
  3
A3
350
3F
  3
A4
350
40
  3
A5
350
41
  3
A6
350
42
  3
A7
350
43
  3
A8
350
44
  3
A9
350
45
  3
B0
350
46
  3
B1
350
47
  3
B2
350
48
  3
B3
350
49
  3
B4
350
4A
  3
B5
350
4B
  3
B6
350
4C
  3
B7
350
4D
  3
B8
350
4E
  3
B9
350
4F
  3
C0
350
50
  3
C1
350
51
  3
C2
350
52
  3
C3
350
53
  3
C4
350
54
  3
C5
350
55
  3
C6
350
56
  3
C7
350
57
  3
C8
350
58
  3
C9
350
59
  3
D0
350
5A
  3
D1
350
5B
  3
D2
350
5C
1001
ACAD
1000
TREAT_AS_HARD
1070
     0
  0
DICTIONARY
  5
2A
102
{ACAD_REACTORS
330
C
102
}
330
C
100
AcDbDictionary
  3
2DWIREFRAME
350
2F
  3
3D_HIDDEN
350
31
  3
3DWIREFRAME
350
30
  3
BASIC
350
32
  3
BRIGHTEN
350
36
  3
COLORCHANGE
350
3A
  3
CONCEPTUAL
350
34
  3
DIM
350
35
  3
FACEPATTERN
350
39
  3
FLAT
350
2B
  3
FLATWITHEDGES
350
2C
  3
GOURAUD
350
2D
  3
GOURAUDWITHEDGES
350
2E
  3
LINEPATTERN
350
38
  3
REALISTIC
350
33
  3
THICKEN
350
37
1001
ACAD
1000
TREAT_AS_HARD
1070
     0
  0
DICTIONARY
  5
385
102
{ACAD_REACTORS
330
C
102
}
330
C
100
AcDbDictionary
  3
CANNOSCALE
350
38A
  3
PSOLHEIGHT
350
389
  3
PSOLWIDTH
350
388
1001
ACAD
1000
TREAT_AS_HARD
1070
     0
  0
MLINESTYLE
  5
18
102
{ACAD_REACTORS
330
17
102
}
330
17
100
AcDbMlineStyle
  2
Standard
 70
     0
  3

 62
   256
 51
90.0
 52
90.0
 71
     2
 49
0.5
 62
   256
  6
BYLAYER
 49
-0.5
 62
   256
  6
BYLAYER
  0
ACAD_PROXY_OBJECT
  5
3C
102
{ACAD_REACTORS
330
3B
102
}
330
3B
100
AcDbZombieObject
 90
      499
 91
      502
 93
       41
310
903313A31580
  0
ACAD_PROXY_OBJECT
  5
3D
102
{ACAD_REACTORS
330
3B
102
}
330
3B
100
AcDbZombieObject
 90
      499
 91
      502
 93
      105
310
903313A324000000000000004000
  0
ACAD_PROXY_OBJECT
  5
3E
102
{ACAD_REACTORS
330
3B
102
}
330
3B
100
AcDbZombieObject
 90
      499
 91
      502
 93
      105
310
903313A344000000000000104000
  0
ACAD_PROXY_OBJECT
  5
3F
102
{ACAD_REACTORS
330
3B
102
}
330
3B
100
AcDbZombieObject
 90
      499
 91
      502
 93
      105
310
903313A354000000000000144000
  0
ACAD_PROXY_OBJECT
  5
40
102
{ACAD_REACTORS
330
3B
102
}
330
3B
100
AcDbZombieObject
 90
      499
 91
      502
 93
      105
310
903313A384000000000000204000
  0
ACAD_PROXY_OBJECT
  5
41
102
{ACAD_REACTORS
330
3B
102
}
330
3B
100
AcDbZombieObject
 90
      499
 91
      502
 93
      113
310
904313A31304000000000000244000
  0
ACAD_PROXY_OBJECT
  5
42
102
{ACAD_REACTORS
330
3B
102
}
330
3B
100
AcDbZombieObject
 90
      499
 91
      502
 93
      113
310
904313A31364000000000000304000
  0
ACAD_PROXY_OBJECT
  5
43
102
{ACAD_REACTORS
330
3B
102
}
330
3B
100
AcDbZombieObject
 90
      499
 91
      502
 93
      113
310
904313A32304000000000000344000
  0
ACAD_PROXY_OBJECT
  5
44
102
{ACAD_REACTORS
330
3B
102
}
330
3B
100
AcDbZombieObject
 90
      499
 91
      502
 93
      113
310
904313A333040000000000003E4000
  0
ACAD_PROXY_OBJECT
  5
45
102
{ACAD_REACTORS
330
3B
102
}
330
3B
100
AcDbZombieObject
 90
      499
 91
      502
 93
      113
310
904313A34304000000000000444000
  0
ACAD_PROXY_OBJECT
  5
46
102
{ACAD_REACTORS
330
3B
102
}
330
3B
100
AcDbZombieObject
 90
      499
 91
      502
 93
      113
310
904313A35304000000000000494000
  0
ACAD_PROXY_OBJECT
  5
47
102
{ACAD_REACTORS
330
3B
102
}
330
3B
100
AcDbZombieObject
 90
      499
 91
      502
 93
      121
310
905313A3130304000000000000594000
  0
ACAD_PROXY_OBJECT
  5
48
102
{ACAD_REACTORS
330
3B
102
}
330
3B
100
AcDbZombieObject
 90
      499
 91
      502
 93
      105
310
903323A310000000000000010100
  0
ACAD_PROXY_OBJECT
  5
49
102
{ACAD_REACTORS
330
3B
102
}
330
3B
100
AcDbZombieObject
 90
      499
 91
      502
 93
      105
310
903343A310000000000000410100
  0
ACAD_PROXY_OBJECT
  5
4A
102
{ACAD_REACTORS
330
3B
102
}
330
3B
100
AcDbZombieObject
 90
      499
 91
      502
 93
      105
310
903383A310000000000000810100
  0
ACAD_PROXY_OBJECT
  5
4B
102
{ACAD_REACTORS
330
3B
102
}
330
3B
100
AcDbZombieObject
 90
      499
 91
      502
 93
      113
310
90431303A310000000000000910100
  0
ACAD_PROXY_OBJECT
  5
4C
102
{ACAD_REACTORS
330
3B
102
}
330
3B
100
AcDbZombieObject
 90
      499
 91
      502
 93
      121
310
9053130303A310000000000001650100
  0
ACAD_PROXY_OBJECT
  5
4D
102
{ACAD_REACTORS
330
3B
102
}
330
3B
100
AcDbZombieObject
 90
      499
 91
      502
 93
      257
310
90E312F31323822203D2031272D3022000000000000200FC000000000000284000
  0
ACAD_PROXY_OBJECT
  5
4E
102
{ACAD_REACTORS
330
3B
102
}
330
3B
100
AcDbZombieObject
 90
      499
 91
      502
 93
      249
310
90D312F363422203D2031272D3022000000000000240FC000000000000284000
  0
ACAD_PROXY_OBJECT
  5
4F
102
{ACAD_REACTORS
330
3B
102
}
330
3B
100
AcDbZombieObject
 90
      499
 91
      502
 93
      249
310
90D312F333222203D2031272D3022000000000000280FC000000000000284000
  0
ACAD_PROXY_OBJECT
  5
50
102
{ACAD_REACTORS
330
3B
102
}
330
3B
100
AcDbZombieObject
 90
      499
 91
      502
 93
      249
310
90D312F313622203D2031272D30220000000000002C0FC000000000000284000
  0
ACAD_PROXY_OBJECT
  5
51
102
{ACAD_REACTORS
330
3B
102
}
330
3B
100
AcDbZombieObject
 90
      499
 91
      502
 93
      249
310
90D332F333222203D2031272D30220000000000002E0FC000000000000284000
  0
ACAD_PROXY_OBJECT
  5
52
102
{ACAD_REACTORS
330
3B
102
}
330
3B
100
AcDbZombieObject
 90
      499
 91
      502
 93
      241
310
90C312F3822203D2031272D3022000000000000300FC000000000000284000
  0
ACAD_PROXY_OBJECT
  5
53
102
{ACAD_REACTORS
330
3B
102
}
330
3B
100
AcDbZombieObject
 90
      499
 91
      502
 93
      249
310
90D332F313622203D2031272D3022000000000000320FC000000000000284000
  0
ACAD_PROXY_OBJECT
  5
54
102
{ACAD_REACTORS
330
3B
102
}
330
3B
100
AcDbZombieObject
 90
      499
 91
      502
 93
      241
310
90C312F3422203D2031272D3022000000000000340FC000000000000284000
  0
ACAD_PROXY_OBJECT
  5
55
102
{ACAD_REACTORS
330
3B
102
}
330
3B
100
AcDbZombieObject
 90
      499
 91
      502
 93
      241
310
90C332F3822203D2031272D3022000000000000360FC000000000000284000
  0
ACAD_PROXY_OBJECT
  5
56
102
{ACAD_REACTORS
330
3B
102
}
330
3B
100
AcDbZombieObject
 90
      499
 91
      502
 93
      241
310
90C312F3222203D2031272D3022000000000000380FC000000000000284000
  0
ACAD_PROXY_OBJECT
  5
57
102
{ACAD_REACTORS
330
3B
102
}
330
3B
100
AcDbZombieObject
 90
      499
 91
      502
 93
      241
310
90C332F3422203D2031272D30220000000000003A0FC000000000000284000
  0
ACAD_PROXY_OBJECT
  5
58
102
{ACAD_REACTORS
330
3B
102
}
330
3B
100
AcDbZombieObject
 90
      499
 91
      502
 93
      161
310
90A3122203D2031272D30224000000000000284000
  0
ACAD_PROXY_OBJECT
  5
59
102
{ACAD_REACTORS
330
3B
102
}
330
3B
100
AcDbZombieObject
 90
      499
 91
      502
 93
      257
310
90E312D312F3222203D2031272D30220000000000003E0FC000000000000284000
  0
ACAD_PROXY_OBJECT
  5
5A
102
{ACAD_REACTORS
330
3B
102
}
330
3B
100
AcDbZombieObject
 90
      499
 91
      502
 93
      225
310
90A3322203D2031272D302200000000000002100000000000000284000
  0
ACAD_PROXY_OBJECT
  5
5B
102
{ACAD_REACTORS
330
3B
102
}
330
3B
100
AcDbZombieObject
 90
      499
 91
      502
 93
      225
310
90A3622203D2031272D302200000000000006100000000000000284000
  0
ACAD_PROXY_OBJECT
  5
5C
102
{ACAD_REACTORS
330
3B
102
}
330
3B
100
AcDbZombieObject
 90
      499
 91
      502
 93
      249
310
90D31272D3022203D2031272D30220000000000000A100000000000000284000
  0
ACAD_PROXY_OBJECT
  5
2F
102
{ACAD_REACTORS
330
2A
102
}
330
2A
100
AcDbZombieObject
 90
      499
 91
      501
 93
      436
310
42CC9915DA5C99599C985B595049028333333333333E3BF0000000000000FB0107901411070040501600405405064090741402480A0340
1001
ACAD
1000
AcDbSavedByObjectVersion
1070
     0
  0
ACAD_PROXY_OBJECT
  5
31
102
{ACAD_REACTORS
330
2A
102
}
330
2A
100
AcDbZombieObject
 90
      499
 91
      501
 93
      500
310
424CD108121A5919195B90640502408333333333333E3BF0000000000000FB01079024090700405020000000000001110200405405064090740C02480A0340
1001
ACAD
1000
AcDbSavedByObjectVersion
1070
     0
  0
ACAD_PROXY_OBJECT
  5
30
102
{ACAD_REACTORS
330
2A
102
}
330
2A
100
AcDbZombieObject
 90
      499
 91
      501
 93
      436
310
42CCD915DA5C99599C985B595059028333333333333E3BF0000000000000FB0107901411070040501600405405064090741402480A0340
1001
ACAD
1000
AcDbSavedByObjectVersion
1070
     0
  0
ACAD_PROXY_OBJECT
  5
32
102
{ACAD_REACTORS
330
2A
102
}
330
2A
100
AcDbZombieObject
 90
      499
 91
      501
 93
      388
310
4150985CDA58D07406404333333333333E3BF0000000000000FB0107A41107004050150841D405064090741402480A0350
1001
ACAD
1000
AcDbSavedByObjectVersion
1070
     0
  0
ACAD_PROXY_OBJECT
  5
36
102
{ACAD_REACTORS
330
2A
102
}
330
2A
100
AcDbZombieObject
 90
      499
 91
      501
 93
      428
310
42109C9A59DA1D195B90C409028333333333333E3BF0000000000000FB010790141107004050150841D405064090741402480A029950
1001
ACAD
1000
AcDbSavedByObjectVersion
1070
     0
  0
ACAD_PROXY_OBJECT
  5
3A
102
{ACAD_REACTORS
330
2A
102
}
330
2A
100
AcDbZombieObject
 90
      499
 91
      501
 93
      452
310
42D0DBDB1BDC90DA185B99D95104090240C333333333333E3BF0000000000000FB0108901411070040501508421405064090741402480A0350
1001
ACAD
1000
AcDbSavedByObjectVersion
1070
     0
  0
ACAD_PROXY_OBJECT
  5
34
102
{ACAD_REACTORS
330
2A
102
}
330
2A
100
AcDbZombieObject
 90
      499
 91
      501
 93
      500
310
4290DBDB98D95C1D1D585B10940D028333333333333E3BF0000000000000FB0107902409070040501000000000000111010841D405064090740C02480A0340
1001
ACAD
1000
AcDbSavedByObjectVersion
1070
     0
  0
ACAD_PROXY_OBJECT
  5
35
102
{ACAD_REACTORS
330
2A
102
}
330
2A
100
AcDbZombieObject
 90
      499
 91
      501
 93
      412
310
40D11A5B50B409028333333333333E3BF0000000000000FB010790141107004050150841D405064090741402480A02677FFFFFD0
1001
ACAD
1000
AcDbSavedByObjectVersion
1070
     0
  0
ACAD_PROXY_OBJECT
  5
39
102
{ACAD_REACTORS
330
2A
102
}
330
2A
100
AcDbZombieObject
 90
      499
 91
      501
 93
      444
310
42D19858D95C185D1D195C9B90F409028333333333333E3BF0000000000000FB010790141107004050150841D405064090741402480A0350
1001
ACAD
1000
AcDbSavedByObjectVersion
1070
     0
  0
ACAD_PROXY_OBJECT
  5
2B
102
{ACAD_REACTORS
330
2A
102
}
330
2A
100
AcDbZombieObject
 90
      499
 91
      501
 93
      388
310
41119B185D240901404333333333333E3BF0000000000000F9010740A41107004050150841D405064090741402480A1B50
1001
ACAD
1000
AcDbSavedByObjectVersion
1070
     0
  0
ACAD_PROXY_OBJECT
  5
2C
102
{ACAD_REACTORS
330
2A
102
}
330
2A
100
AcDbZombieObject
 90
      499
 91
      501
 93
      476
310
43519B185D15DA5D1A115919D95CD0140901404333333333333E3BF0000000000000F9010740901411070040501600405405064090741402480A1B50
1001
ACAD
1000
AcDbSavedByObjectVersion
1070
     0
  0
ACAD_PROXY_OBJECT
  5
2D
102
{ACAD_REACTORS
330
2A
102
}
330
2A
100
AcDbZombieObject
 90
      499
 91
      501
 93
      412
310
41D1DBDD5C985D5910240902404333333333333E3BF0000000000000F9010740A411070040501641D405064090741402480A1B50
1001
ACAD
1000
AcDbSavedByObjectVersion
1070
     0
  0
ACAD_PROXY_OBJECT
  5
2E
102
{ACAD_REACTORS
330
2A
102
}
330
2A
100
AcDbZombieObject
 90
      499
 91
      501
 93
      500
310
4411DBDD5C985D5915DA5D1A115919D95CD0340902404333333333333E3BF0000000000000F9010740901411070040501600405405064090741402480A1B50
1001
ACAD
1000
AcDbSavedByObjectVersion
1070
     0
  0
ACAD_PROXY_OBJECT
  5
38
102
{ACAD_REACTORS
330
2A
102
}
330
2A
100
AcDbZombieObject
 90
      499
 91
      501
 93
      444
310
42D31A5B995C185D1D195C9B90E409028333333333333E3BF0000000000000FB010790141107004050750841D405064090741402483A0350
1001
ACAD
1000
AcDbSavedByObjectVersion
1070
     0
  0
ACAD_PROXY_OBJECT
  5
33
102
{ACAD_REACTORS
330
2A
102
}
330
2A
100
AcDbZombieObject
 90
      499
 91
      501
 93
      420
310
425499585B1A5CDD1A58D08409028333333333333E3BF0000000000000FB01079019070040501508421405064090741402480A1B40
1001
ACAD
1000
AcDbSavedByObjectVersion
1070
     0
  0
ACAD_PROXY_OBJECT
  5
37
102
{ACAD_REACTORS
330
2A
102
}
330
2A
100
AcDbZombieObject
 90
      499
 91
      501
 93
      412
310
41D51A1A58DAD95B90D409028333333333333E3BF0000000000000FB010790141107004050150C41D405064090741402480A0350
1001
ACAD
1000
AcDbSavedByObjectVersion
1070
     0
  0
DICTIONARYVAR
  5
38A
102
{ACAD_REACTORS
330
385
102
}
330
385
100
DictionaryVariables
280
     0
  1
1:1
  0
DICTIONARYVAR
  5
389
102
{ACAD_REACTORS
330
385
102
}
330
385
100
DictionaryVariables
280
     0
  1
80.000000
  0
DICTIONARYVAR
  5
388
102
{ACAD_REACTORS
330
385
102
}
330
385
100
DictionaryVariables
280
     0
  1
5.000000
  0
ENDSEC
  0
EOF
